Song name
# A B C D E F G H I J K L M N O P Q R S T U V W X Y Z

Walk Off The Earth - Somebody That I Used To Know tab

Guy in the middle with long hair:

Intro:
E|--------3--3--5--6--8--5----------------------------|
B|--1--1--------------------8----6--6--5--5--3--3--1--|
G|----------------------------------------------------|
D|----------------------------------------------------|
A|----------------------------------------------------|
E|----------------------------------------------------|


E|--------3--3--5--6--8--5--3-------------------3/5--|
B|--1--1-------------------------3--3--5--3--3-------|
G|---------------------------------------------------|
D|---------------------------------------------------|
A|---------------------------------------------------|
E|---------------------------------------------------|

Verse 1:
E|----------------------------------------------|
B|--3--3------3--3------3--3------3--3----3--3--|
G|----------------------------------------------|
D|----------------------------------------------|
A|----------------------------------------------|
E|----------------------------------------------|

Instrumental interlude:
E|-----5----8--5--3------------------5----8--5--------|
B|--3----------------3--3------5--3-------------3--3--|
G|----------------------------------------------------|
D|----------------------------------------------------|
A|----------------------------------------------------|
E|----------------------------------------------------|

Verse 2:
E|----------------------------|
B|--3--3------3--3------3--3--|
G|----------------------------|
D|----------------------------|
A|----------------------------|
E|----------------------------|

Chorus:
E|--5--3--3--5-------5--3--3--5-----------5--3--3--5--------5--3--3--5--------|
B|--------------6----------------6--5--3--------------6--5--------------6--5--|
G|----------------------------------------------------------------------------|
D|----------------------------------------------------------------------------|
A|----------------------------------------------------------------------------|
E|----------------------------------------------------------------------------|


E|--------3--3--5--6--8--5----------------------------|
B|--1--1--------------------8----6--6--5--5--3--3--1--|
G|----------------------------------------------------|
D|----------------------------------------------------|
A|----------------------------------------------------|
E|----------------------------------------------------|


E|--------3--3--5--6--8--5--3----------0--------3/5--|
B|--1--1-------------------------3--3-----3--3-------|
G|---------------------------------------------------|
D|---------------------------------------------------|
A|---------------------------------------------------|
E|---------------------------------------------------|

Instrumental:
E|-------------------------------------------------------------------------------------|
B|--6--6--5--5--5--5----6--6--5--5--5--5----6--6--5--5--5--5----6--6--5--5--5--5-------|
G|-------------------------------------------------------------------------------------|
D|-------------------------------------------------------------------------------------|
A|-------------------------------------------------------------------------------------|
E|-------------------------------------------------------------------------------------|


E|--6--6--5--5--5--5----6--6--5--5--5--5--|
B|----------------------------------------|
G|----------------------------------------|
D|----------------------------------------|
A|----------------------------------------|
E|----------------------------------------|

Verse 3:
E|--6--6--5--5--5--5----6--6--5--5--5--5------6--6--5--5--5--5----6--6--5--5-----|
B|-------------------------------------------------------------------------------|
G|-------------------------------------------------------------------------------|
D|-------------------------------------------------------------------------------|
A|-------------------------------------------------------------------------------|
E|-------------------------------------------------------------------------------|


E|--5--3----8--5--3-------5--3----8--5--3--|
B|---------------------5-------------------|
G|-----------------------------------------|
D|-----------------------------------------|
A|-----------------------------------------|
E|-----------------------------------------|

Chorus:
E|--5--3--3--5-------5--3--3--5-----------5--3--3--5-----5--3--3--5--------|
B|--------------6----------------6--5--3--------------6--------------6--5--|
G|-------------------------------------------------------------------------|
D|-------------------------------------------------------------------------|
A|-------------------------------------------------------------------------|
E|-------------------------------------------------------------------------|


E|--------3--3--5--6--8--5--3----1--1--0--0-----------|
B|--1--1-------------------------------------3--3--1--|
G|----------------------------------------------------|
D|----------------------------------------------------|
A|----------------------------------------------------|
E|----------------------------------------------------|


E|--------3--3--5--6--8--5--3----1--1--0--0-----------|
B|--1--1-------------------------------------3--3--1--|
G|----------------------------------------------------|
D|----------------------------------------------------|
A|----------------------------------------------------|
E|----------------------------------------------------|

Ending:
E|--------3--3--5--6--8--5--3----1--1--0--0-----------|
B|--1--1-------------------------------------3--3--1--|
G|----------------------------------------------------|
D|----------------------------------------------------|
A|----------------------------------------------------|
E|----------------------------------------------------|


E|--------3--3--5--6--8--5--3-------0-----3/5--|
B|--1--1-------------------------3-----3-------|
G|---------------------------------------------|
D|---------------------------------------------|
A|---------------------------------------------|
E|---------------------------------------------|



The Girl:

Intro/Verses:
E|------------------------|
B|------------------------|
G|--14----12----14----12--|
D|--12----10----12----10--|
A|------------------------|
E|------------------------|


E|------------------------------------------------|
B|------------------------------------------------|
G|--14----12----14----12----14----12----14----12--|
D|--12----10----12----10----12----10----12----10--|
A|------------------------------------------------|
E|------------------------------------------------|


E|------------------------------------------------|
B|------------------------------------------------|
G|--14----12----14----12----14----12----14----12--|
D|--12----10----12----10----12----10----12----10--|
A|------------------------------------------------|
E|------------------------------------------------|

Chorus/Ending
E|----------------------------------|
B|----------------------------------|
G|--14--14--12--12--10--10--12--12--|
D|--12--12--10--10--8---8---10--10--|
A|----------------------------------|
E|----------------------------------|


Notes on girl's part (in order of chronological relevance):
- rest in pre-chorus bass line
- rest immediately after chorus
- rest for 2nd part of 3rd verse ("I don't wanna live that way...") until chorus



Bass Part Guy:

Intro/Verses:
E|--------------------------------------|
B|--------------------------------------|
G|--------------------------------------|
D|--------------------------------------|
A|--5--5--3--3--5--5--3--3--5--5--3--3--|
E|--------------------------------------|

Chorus/Ending:
E|--------------------------------------------------|
B|--------------------------------------------------|
G|--------------------------------------------------|
D|--------------------------------------------------|
A|--5--5--3--3--1--1--3--3--5--5--3--3--1--1--3--3--|
E|--------------------------------------------------|

Girl verse 2nd part:
E|--------------------------|
B|--------------------------|
G|--------------------------|
D|--------------------------|
A|--3--3--3--3--3--3--3--3--|
E|--------------------------|





In case you didn't catch it, the one long haired guy's part is tabbed out entirely while 
the other two parts are just little snippets of what is to be repeated. You're going to 
have to listen to the song to get the timing and all that.

Enjoy!
Tap to rate this tab
 
# A B C D E F G H I J K L M N O P Q R S T U V W X Y Z