Song name
# A B C D E F G H I J K L M N O P Q R S T U V W X Y Z

Walk Off The Earth - Gang Of Rhythm tab

CAPO 1

Verse 1 & 2 (PALM MUTED) (Better if Placked)

   I got this...       all I need...      back the beat...
|------------------|------------------|-------------------|
|------5-----------|------7-----------|-------10----------|
|------4-----------|------6-----------|-------9-----------|
|---2--------------|---4--------------|----7--------------|
|------------------|------------------|-------------------|
|------------------|------------------|-------------------|
sing a song...
|-----------------------------|
|-----------------------------|
|----------6-----------4------|
|----------6--(x4)-----4--(x4)|
|-------4-----------2---------|
|-----------------------------|


There's no worries...
|------------------------------------------------|
|------------------------------------------------|
|----6-----6-----4-----4-----2-----2-----4-----4-|
|----6-----6-----4-----4-----2-----2-----4-----4-|
|-4-----4-----2-----2-----0-----0-----2-----2----|
|------------------------------------------------|
We're all walkin...
|-------------------------------------------|
|-------------------------------------------|
|----6-----6-----4-----4-------------4------|
|----6-----6-----4-----4-------------4------|
|-4-----4-----2-----2-----0----------2------|
|-------------------------------------------|


Chorus: (Up to you, if you want to use power chords)

E           A
Come on now everyone yeah
E           B
Come on now everyone
E            A
We're like a locomotive
E         B
Under the big hot sun
E                    A
We're chained to the gang of rhythm
E           B
The song is never done
E           A
Come on now everyone yeah
E           B
Come on now everyone

E-A-F#m-B-E-A-F#m-B
                 Come on everyone



[Bridge] (easier option)

night is done
|-----------------------------------------------------------|
|-----------------------------------------------------------|
|----6-----------4-----------------------4------------------|
|----6--(x4)-----4--(x4)-----4-----------4--(x6)------------|
|-4-----------2--------------4--(x4)--2-----------2---------|
|-------------------------2---------------------------------|

OR in more complicated way, also the original

[Bridge] (original) (notice the timing between each -dash/hypen-)

night is done
|-------------------------------------------------------|
|-------------------------------------------------------|
|-----6----6--6----6----6--6----4----4--4----4----4--4--|
|-----6----6--6----6----6--6----4----4--4----4----4--4--|
|-4-------4----4-------4----2-------2----2-------2------|
|-------------------------------------------------------|
carry on
|---------------------------|
|---------------------------|
|---------------------------|
|----4----4--4----4----4--4-|
|----4----4--4----4----4--4-|
|2-------2----2-------2-----|
We're gone..
|-----------------------------------------------------|
|-----------------------------------------------------|
|-----4----4--4----4----4--4----4----4--4-------------|
|-----4----4--4----4----4--4----4----4--4-------------|
|-2-------2----2-------2----2-------2----2------------|
|-----------------------------------------------------|

There's no worries... (original) If you prefer easier one.. go scroll back up^
(use bar to make this easier)
|---------------------------------------------------------|
|---------------------------------------------------------|
|---4h6----2h4----1h2----2h4----4h6----2h4----1h2---4-----|
|--6----6-4----4-2----2-4----2-6----6-4----4-2------4-----|
|-4------2------0------2------4------2------0-------2-----|
|---------------------------------------------------------|


Come on now everyone yeah
Come now everyone
We're like like a locomotive
Under the big hot sun
|---------------------------------------------------------|
|---------------------------------------------------------|
|-999999-888888-666666-444444-999999-888888-666666--4-----|
|-999999-999999-666666-444444-999999-888888-666666--4-----|
|-777777-666666-444444-222222-777777-666666-444444--2-----|
|---------------------------------------------------------|

Chorus:


E           A
Come on now everyone yeah
E           B
Come on now everyone
E            A
We're like a locomotive
E         B
Under the big hot sun
E                    A
We're chained to the gang of rhythm
E           B
The song is never done
E           A
Come on now everyone yeah
E           B
Come on now everyone

E-A-F#m-B-E-A-F#m-B
E-A-F#m-B-E-A-F#m-B

Ending
|----------------5--------0----0--------------------------|
|---5--------------7--------2--5--------------------------|
|---4-(x8)-----6------2--------4--------------------------|
|-2----------4-----------------2--------------------------|
|---------------------------------------------------------|
|---------------------------------------------------------|

...
Tap to rate this tab
# A B C D E F G H I J K L M N O P Q R S T U V W X Y Z