Song name
# A B C D E F G H I J K L M N O P Q R S T U V W X Y Z

Walk The Moon - Quesadilla tab

Walk The Moon - Quesadilla  from Walk the Moon or I Want,  I Want!
I  seem to be the first one :) So, I may have errors, feel free to correct me at ANY time! :)
I will work on the mini solo and piano part for you guys soon!



Intro 

e|----555-x-5----555--5-----------------------------|
B|----555-x-5----555--5-----------------------------|
G|----444-x-4----444--4-----------------------------|
D|----333-x-3----333--3-----------------------------|
A|----333-x-3----333--3-----------------------------|
E|----555-x-5----555--5-----------------------------| x4

(Verse)

"I must have tumbled out…"

e|----777-x-7----555--5-----------------------------|
B|----777-x-7----555--5-----------------------------|
G|----444-x-4----444--4-----------------------------|
D|----777-x-7----333--3-----------------------------|
A|----777-x-7----333--3-----------------------------|
E|----555-x-5----555--5-----------------------------| x4

"My shoot is…" 

e|----555-5-----------------------------------------|
B|----555-5-----------------------------------------|
G|----777-7-----------------------------------------|
D|----777-7-----------------------------------------|
A|----555-5-----------------------------------------|
E|--------------------------------------------------| x4


"And I'm nowhere now…"

e|-----777-7--777-7---------------------------------|
B|-----777-7--777-7---------------------------------|
G|-----999-9--999-9---------------------------------|
D|-----999-9--999-9---------------------------------|
A|-----777-7--777-7---------------------------------|
E|--------------------------------------------------| x2

"But here."

e|----555--5----555--5-----------------------------|
B|----555--5----555--5-----------------------------|
G|----444--4----444--4-----------------------------|
D|----333--3----333--3-----------------------------|
A|----333--3----333--3-----------------------------|
E|----555--5----555--5-----------------------------| 

"When I see your long hair come down…"

e|--------------------------------------------------|
B|--------------------------------------------------|
G|------------------------------7-------------------|
D|--4---------------------------7-------------------|
A|--4---------------------------5-------------------|
E|--2-----------------------------------------------|

"…turn my head inside out."

e|--------------------------------------------------|
B|--------------------------------------------------|
G|-9------------------7-----------------------------|
D|-9------------------7-----------------------------|
A|-7------------------5-----------------------------|
E|--------------------------------------------------|

"I want you…" 

e|--------------------------------------------------|
B|--------------------------------------------------|
G|--------------------------------------------------|
D|--------------------------------------------------|
A|--5-55---7-77-------------------------------------|
E|--------------------------------------------------|

(Chorus)

"I still do!"

e|-----5--------------------------------------------|
B|-----5--------------------------------------------|
G|-----4-----------------9---7-----------11--9------|
D|-----7-----------------9---7-----------11--9------|
A|-----7-----------------7---5-----------9---7------|
E|-----5--------------------------------------------|


-Verse
-"Long Hair/Want You"
-Chorus *** Play the last two chords in that order times two ***

Outro

e|--------------------------------------------------|
B|--------------------------------------------------|
G|--------------------------------------------------|
D|--------------------------------------------------|
A|--------------------------------------------------|
E|---555--------------------------------------------| x20(?)

Mini guitar solo/Piano part coming soon! (v2)

Well this is the bulk of it. If guys see any errors correct me! I want to be corrected! 

Thanks! Jameson (jpghalio@yahoo.com)
Tap to rate this tab
# A B C D E F G H I J K L M N O P Q R S T U V W X Y Z