Song name
# A B C D E F G H I J K L M N O P Q R S T U V W X Y Z

Walkmen - Woe Is Me tab

The Walkmen - Woe Is Me


Intro / Verse (Repeat as many times as necessary)

e|----7-----11---9--9--------9--9------9--9--------|
B|--------------------9-9---------9-9-------9-9----|
G|--8----11-------------9-----------9---------9----|
D|-------------------------------------------------|
A|-------------------------------------------------|
E|-------------------------------------------------|


Chorus

Woe is me.....

e|--X--9-----|
B|--7--9-----|     Listen to the song to work out how many times to play
G|--8--9-----|     each chord - easy to figure out!!
D|--8--11----|
A|--9--11----|
E|--X--9-----|


Then repeat the verse as many times as needed. 
I have left out the bridge and outro!!
Tap to rate this tab
 
# A B C D E F G H I J K L M N O P Q R S T U V W X Y Z