Song name
# A B C D E F G H I J K L M N O P Q R S T U V W X Y Z

Walkmen - Woe Is Me tab

"Woe Is Me"

The intro/verse section has randomly picked notes throughout 
it so I've simplifed it the best way possible without tabbing 
out every random note.

The outro is the only reason this song may cause frustration. The 
echo/delay makes it sound more complex than it is. To add to that, 
Paul picks extra notes and alternate patterns throughout the album 
version and live. Therefore, I've settled on one of the common 
ways he has played it live; it's clearer and easier to hear live 
versions because he doesn't use as much echo/delay.



**Intro/Verse**

|---7----11-9-||-9---------9-9-------|-9-9---------7----11-9-||
|-------------||-------9---------9---|-------9-9\------------||
|-8--/11------||-----9---------9-----|-----9-----8--/11------||
|-------------||---------------------|-----------------------||
|-------------||---------------------|-----------------------||
|-------------||---------------------|-----------------------||



**Chorus**

|-----------------|------------------|-----------------|--------------------|
|-7-7-7-7-7-7-7-7-|-/9----9----9--9--|-9----9----9--9--|-9----9----9--9--9--|
|-8-8-8-8-8-8-8-8-|-/9----9----9--9--|-9----9----9--9--|-9----9----9--9--9--|
|-9-9-9-9-9-9-9-9-|-/11---11---11-11-|-11---11---11-11-|-11---11---11-11-11-|
|-----------------|------------------|-----------------|--------------------|
|-----------------|------------------|-----------------|--------------------|



**Bridge**

|-------------------|------------------------|
|---7---------------|---7--------------------|
|-8---8-9-9-9-9-9-9-|-8---8-9-11-11-11-11-11-|
|-------------------|------------------------|
|-------------------|------------------------|
|-------------------|------------------------|



**Outro**

|---4--\2---0---2---0-------2-----|
|-----0-----------------4-------4-|
|-4----\--2---1---2--/4---4---4---|
|---------------------------------|
|---------------------------------|
|---------------------------------|



Tap to rate this tab
 
# A B C D E F G H I J K L M N O P Q R S T U V W X Y Z