Song name
# A B C D E F G H I J K L M N O P Q R S T U V W X Y Z

Walkmen - Southern Heart tab

"Southern Heart" - The Walkmen




**Intro**

  C#m
|-----------------|
|-----5-------5---|
|-----6-------6---|
|-----6-------6---| x4
|-4---------------|
|---------4-------|



**Verses**

  C#m             D                 D               C#m
|---------------------------------|---------------------------------|
|-----5-------5-------7-------7---|-----7-------7-------5-------5---|
|-----6-------6-------7-------7---|-----7-------7-------6-------6---|
|-----6-------6-------7-------7---|-----7-------7-------6-------6---|
|-4---------------5---------------|-5---------------4---------------|
|---------4---------------5-------|---------5---------------4-------|


  C#m             D                 G               F#m
|---------------------------------|---------------------2-------2---2---2---2---2---|
|-----5-------5-------7-------7---|-----3-------3-------2-------2---2---2---2---2---|
|-----6-------6-------7-------7---|-----4-------4-------2-------2---2---2---2---2---|
|-----6-------6-------7-------7---|-5-----------5-------------------4---4---4---4---|
|-4---------------5---------------|---------5---------------4-----------------------|
|---------4---------------5-------|-----------------2-------------------------------|



**First Chorus**

  Em                                D
|-0---0---0---0---0---0---0---0---|-----2-------2-------2-------2---|
|-0---0---0---0---0---0---0---0---|-----3-------3-------3-------3---|
|-0---0---0---0---0---0---0---0---|-----2-------2-------2-------2---|
|-2---2---2---2---2---2---2---2---|-0---------------0---------------|
|-2---2---2---2---2---2---2---2---|---------0---------------0-------|
|-0---0---0---0---0---0---0---0---|---------------------------------|


  Em                                D               F#m
|-0---0---0---0---0---0---0---0---|-----2-------2-------2---2-------|
|-0---0---0---0---0---0---0---0---|-----3-------3-------2---2-------|
|-0---0---0---0---0---0---0---0---|-----2-------2-------2---2-------|
|-2---2---2---2---2---2---2---2---|-0-------------------4---4-------|
|-2---2---2---2---2---2---2---2---|---------0-------4---------------|
|-0---0---0---0---0---0---0---0---|---------------------------------|



**Second Chorus**

  Em                                D
|-0---0---0---0---0---0---0---0---|-----2-------2-------2-------2---|
|-0---0---0---0---0---0---0---0---|-----3-------3-------3-------3---|
|-0---0---0---0---0---0---0---0---|-----2-------2-------2-------2---|
|-2---2---2---2---2---2---2---2---|-0---------------0---------------| x2
|-2---2---2---2---2---2---2---2---|---------0---------------0-------|
|-0---0---0---0---0---0---0---0---|---------------------------------|


  Bm              F#m               
|-2---2---2---2---2---2---2---2---|-----2-------2-------2-----------|
|-3---3---3---3---2---2---2---2---|-----3-------3-------3-----------|
|-4---4---4---4---2---2---2---2---|-----2-------2-------2-----------|
|-4---4---4---4---4---4---4---4---|-0---------------0---------------|
|-----------------4---4---4---4---|---------0---------------0-------|
|---------------------------------|---------------------------------|



**Bridge**

  D               G       C         
|---------------------------------|
|-----------------3---3---5---5---|
|-----------------4---4---5---5---|
|---------4-------5---5---5---5---| x8
|-----5-------5---5---5---3---3---|
|-5---------------3---3-----------|



**Outro**

  Em                                D
|-0---0---0---0---0---0---0---0---|-3-|
|-0---0---0---0---0---0---0---0---|-3-|
|-0---0---0---0---0---0---0---0---|-2-|
|-2---2---2---2---2---2---2---2---|-0-|
|-2---2---2---2---2---2---2---2---|-0-|
|-0---0---0---0---0---0---0---0---|---|




Family comes from Kentucky
And there's bourbon in the blood
They left the country for the city in 1951

Me, I'm inbetween two worlds
Saw you on TV last night

Life looks easy on the TV
Where you ride into some blue evening
I fill my evening's with images of the hazy hereafter

I don't even know your name
It's your southern heart I'm after
It's your southern heart I'm after

Tell me again
How you loved all the men you were after
Tell me again
How you loved all the men you were after
Tell me again
How you loved all the men you were after

Tap to rate this tab
# A B C D E F G H I J K L M N O P Q R S T U V W X Y Z