Song name
# A B C D E F G H I J K L M N O P Q R S T U V W X Y Z

Walkmen - Heaven tab

 Artist: The Walkmen
 Album: Heaven
 Song Title: Heaven

 Tuning: Standard
 Capo: 4th Fret


             Am            C            Am           C
 e ||: -----
 B ||: -----
 G ||: ---2---2---0---0---2---2---0---0----
 D ||: ---------2-------2-------2-------2---
 A ||: -----0-------3-------0-------3-------
 E ||: -----

              F
 e ||: -----
 B ||: -----
 G ||: ---2---2----2---2----2---2----2---2----
 D ||: ---------3--------3--------3--------3---
 A ||: -----3--------3--------3--------3-------
 E ||: -----



 Please rate for additional tabs.
Tap to rate this tab
# A B C D E F G H I J K L M N O P Q R S T U V W X Y Z