Song name
# A B C D E F G H I J K L M N O P Q R S T U V W X Y Z

Wallachia - Fullmane Over Fagars tab

                WALLACHIA - FULLMANE OVER FAGARS (ACCOUSTIC INTRO)
                                Album : Wallachia

=>transcribed by The Pastor from France

Part One
|---------------------------------------|
|------------4---------4-------4--------|
|----------4---4-----6---6---4---4------|
|--------6-------6---------6-------6----|
|------6-----------4--------------------|
|----4----------------------------------|

|---------------------------------------|
|------------4-------5-------4----------|
|--------6-----6-------6-------6--------|
|------6---6-----6-------6-------6------|
|----4-------------4-------4-------4----|
|---------------------------------------|

|---------------------------------------|
|------------4---------4-------4--------|
|----------4---4-----6---6---4---4------|
|--------6-------6---------6-------6----|
|------6-----------4--------------------|
|----4----------------------------------|

|-------------------------------------------|
|--------------4----------------------------|
|----------4-----4-------------8------------|
|--------6---6-----6-----8-8-8---8-8-8------|
|----6-7-------------7-6---------------6----|
|-------------------------------------------|

Repeat Part One

Part Two
|---------------------------------------|
|------------4-------7-------4----------|
|--------4-----4-------4-------4--------|
|------6---6-----6-------6-------6------|
|----7-------------7-------7-------7----|
|---------------------------------------|

|-----------------------------------------|
|--------------------7--------------------|
|------------8---------------8------------|
|------8-8-8---8-8-8---8-8-8---8-8-8------|
|----6-------------------------------6----|
|-----------------------------------------|

Repeat Part Two

Repeat All

Ending
|--------------------------|
|------------4--------4----|
|----------4---4------4----|
|--------6-------6----6----|
|------6--------------6----|
|----4-------------4--4----|


Any corrections or suggestions :
                        => e-mail me  Pastor@Wanadoo.fr
Tap to rate this tab
# A B C D E F G H I J K L M N O P Q R S T U V W X Y Z