Song name
# A B C D E F G H I J K L M N O P Q R S T U V W X Y Z

Wallflowers - Asleep At The Wheel tab

Intro
|-----2-0h2p0-4p2p0-2p0--0------------5----------------|
|-----------------------------5--------------------------|
|-----------------------------6--------------------------|
|-----2--------2------2-------6-----------------2--------|
|-----------------------------4-0h2p0-----0h2-----------|
|--0-----------------------------------------------------|

Verse
|-----2p0-4p0-2p0------------5-------------------------|
|--------------------5-----------------------------------|
|--------------------6-----------------------------------|
|-----2----2----2----6-----------------2-----------------|
|--------------------4-0h2p0-----0h2--------------------|
|--0-----------------------------------------------------|
Tap to rate this tab
# A B C D E F G H I J K L M N O P Q R S T U V W X Y Z