Song name
# A B C D E F G H I J K L M N O P Q R S T U V W X Y Z

Wallflowers - One Headlight tab

--------------------------------------------------------------------------------------------
			     ONE HEADLIGHT - The Wallflowers
--------------------------------------------------------------------------------------------
Tabbed by: Eric L.  (Thank you Wayne for everything! Great guy!)
Email: eric3312@gmail.com
--------------------------------------------------------------------------------------------

Tuning: Standard

Chords Used in this Song:

 -----------------
|                 |
|  G     (320033) |
|  D     (x00232) |
|  F#maj (244322) |
|  Bm    (x24432) |
|  A     (x02220) |
|  Asus4 (x02230) |
|  Em    (022000) |
|  F#m6  (200200) |
|                 |                 
 -----------------


--------------------------------------------------------------------------------------------

Intro before main guitar comes in:

e|---------------------------------------------------|-------|
B|---------------------------------------------------|-------|
G|--------0h2--------0h2-----------------------------|-------|
D|----0----------0---------------------------5p4--0--|-------|
A|------0----------0---------------------------------|--0h2--|
E|---------------------------------------------------|-------|

**Note:  The intro is actually played with a Drop-D tuning.  However, in order to avoid 
your guitar to Drop-D,
you could play it like above.


--------------------------------------------------------------------------------------------

Verse:


     G                  D                  F#                 Bm         A
e|---3-3-3-3-3-3-3-3----2-2-2-2-2-2-2-2----2-2-2-2-2-2-2-2----2-2-2-2----0-0-0-0---|
B|---3-3-3-3-3-3-3-3----3-3-3-3-3-3-3-3----2-2-2-2-2-2-2-2----3-3-3-3----2-2-2-2---|
G|---0-0-0-0-0-0-0-0----2-2-2-2-2-2-2-2----3-3-3-3-3-3-3-3----4-4-4-4----2-2-2-2---|
D|---0-0-0-0-0-0-0-0----0-0-0-0-0-0-0-0----4-4-4-4-4-4-4-4----4-4-4-4----2-2-2-2---|
A|---2-2-2-2-2-2-2-2----0-0-0-0-0-0-0-0----4-4-4-4-4-4-4-4----2-2-2-2----0-0-0-0---|
E|---3-3-3-3-3-3-3-3----x-x-x-x-x-x-x-x----2-2-2-2-2-2-2-2----x-x-x-x----x-x-x-x---|


--------------------------------------------------------------------------------------------

Pre-chorus:


     G                                    F#
e|---3-3-3-3-3-3-3-3-3-3-3-3-3-3-3-3------2-2-2-2-2-2-2-2-2-2-2-2-2-2-2-2--------|
B|---3-3-3-3-3-3-3-3-3-3-3-3-3-3-3-3------2-2-2-2-2-2-2-2-2-2-2-2-2-2-2-2--------|
G|---0-0-0-0-0-0-0-0-0-0-0-0-0-0-0-0------3-3-3-3-3-3-3-3-3-3-3-3-3-3-3-3--------|
D|---0-0-0-0-0-0-0-0-0-0-0-0-0-0-0-0------4-4-4-4-4-4-4-4-4-4-4-4-4-4-4-4--------|
A|---2-2-2-2-2-2-2-2-2-2-2-2-2-2-2-2------4-4-4-4-4-4-4-4-4-4-4-4-4-4-4-4--------|
E|---3-3-3-3-3-3-3-3-3-3-3-3-3-3-3-3------2-2-2-2-2-2-2-2-2-2-2-2-2-2-2-2--------|


--------------------------------------------------------------------------------------------


Chorus:


     G                  D                 Em  F#m6   G    Em  G     A
e|---3-3-3-3-3-3-3-3----2-2-2-2-2-2-2-2----0----0----3----0---3-----0-0-0-0-0-0-0-0------|
B|---3-3-3-3-3-3-3-3----3-3-3-3-3-3-3-3----0----0----3----0---3-----2-2-2-2-2-2-2-2------|
G|---0-0-0-0-0-0-0-0----2-2-2-2-2-2-2-2----0----2----0----0---0-----2-2-2-2-2-2-2-2------|
D|---0-0-0-0-0-0-0-0----0-0-0-0-0-0-0-0----2----0----0----2---0-----2-2-2-2-2-2-2-2------|
A|---2-2-2-2-2-2-2-2----0-0-0-0-0-0-0-0----2----0----2----2---2-----0-0-0-0-0-0-0-0------|
E|---3-3-3-3-3-3-3-3----x-x-x-x-x-x-x-x----0----2----3----0---3-----x-x-x-x-x-x-x-x------|

     G                  D                 Em  F#m6   G    Em  G     A
e|---3-3-3-3-3-3-3-3----2-2-2-2-2-2-2-2----0----0----3----0---3-----0-0-0-0-0-0-0-0------|
B|---3-3-3-3-3-3-3-3----3-3-3-3-3-3-3-3----0----0----3----0---3-----2-2-2-2-2-2-2-2------|
G|---0-0-0-0-0-0-0-0----2-2-2-2-2-2-2-2----0----2----0----0---0-----2-2-2-2-2-2-2-2------|
D|---0-0-0-0-0-0-0-0----0-0-0-0-0-0-0-0----2----0----0----2---0-----2-2-2-2-2-2-2-2------|
A|---2-2-2-2-2-2-2-2----0-0-0-0-0-0-0-0----2----0----2----2---2-----0-0-0-0-0-0-0-0------|
E|---3-3-3-3-3-3-3-3----x-x-x-x-x-x-x-x----0----2----3----0---3-----x-x-x-x-x-x-x-x------|


     Asus4
e|---0-0-0-0-0-0-0-0------|
B|---3-3-3-3-3-3-3-3------|
G|---2-2-2-2-2-2-2-2------|
D|---2-2-2-2-2-2-2-2------|
A|---0-0-0-0-0-0-0-0------|
E|---x-x-x-x-x-x-x-x------|



**Timing for chorus chords:


Em         F#m6     G   Em   G
   There's GOT  to  BE  SOME-THING



**Note:  On the LAST chorus,  remove the Asus4 and just jump right back into the chorus 
the Outro.

--------------------------------------------------------------------------------------------


Outro:

Just keep playing the chorus, but without the Asus4!

--------------------------------------------------------------------------------------------

h = Hammer On
p = Pull Off
Tap to rate this tab
# A B C D E F G H I J K L M N O P Q R S T U V W X Y Z