Song name
# A B C D E F G H I J K L M N O P Q R S T U V W X Y Z

Wally Pleasant - Day Ted Nugent Killed All The Animals tab

  http://www.wallypleasant.com/

G    D    Am    C
___________________
3    2    0     0
3    3    1     1
0    2    2     0
0    0    2     2
2    X    0     3
3    X    X     X

Verse / Chorus
E---3--3-3-3-3----2--2-2-2-2----0--0-0-0-0----0--0-0-0-0--|
B---3--3-3-3-3----3--3-3-3-3----1--1-1-1-1----1--1-1-1-1--|
G---0--0-0-0-0----2--2-2-2-2----2--2-2-2-2----0--0-0-0-0--|
D---0--0-0-0-0--0-0--0-0-0-0----2--2-2-2-2----2--2-2-2-2--|
A---2--2-2-2-2----------------0-0--0-0-0-0--3-3--3-3-3-3--|
E-3-3--3-3-3-3--------------------------------------------|

Raccoons get in the garbage... kill 'em
E---3--3-3-3-3----2--2-2-2-2----3--3-3-3-3--|
B---3--3-3-3-3----3--3-3-3-3----3--3-3-3-3--|
G---0--0-0-0-0----2--2-2-2-2----0--0-0-0-0--|
D---0--0-0-0-0--0-0--0-0-0-0----0--0-0-0-0--|
A---2--2-2-2-2------------------2--2-2-2-2--|
E-3-3--3-3-3-3----------------3-3--3-3-3-3--|

If You havent heared any of his music a strongly recommend you do, my dad introduced me 
him and its the best thing I have ever heard besids Tenacious D
Tap to rate this tab
# A B C D E F G H I J K L M N O P Q R S T U V W X Y Z