Song name
# A B C D E F G H I J K L M N O P Q R S T U V W X Y Z

Walnut Grove Band - Old School Summer tab

Old School Summer
Walnut Grove Band

Intro

Rythm:

   Cm   F

E|-8-------
B|-8----10-
G|-8----10-
D|-10---10-
A|-10---8--
E|-8-------

Lead:

rif.1
E|-------------------------------------------------------------------
B|-------------------------------------------------------------------
G|---------------8h10--10-10-----------------8--10-10b--8----8-10-8--
D|-8h10--10-10----------------8h10--10-10----------------10----------
A|-------------------------------------------------------------------
B|-------------------------------------------------------------------
    ...play 2x

E|-------------------------------------------------------------------
B|-8h9p8----8-9-8-11-11b---11--9-8--8-9-8h9----8---8-9-8h9-----------
G|-------10---------------------------------10-------------10--8-----
D|---------------------------------------------------------------10--
A|-------------------------------------------------------------------
E|-------------------------------------------------------------------

E|----------------------------------------------------
B|-------------11-------------------------------------
G|-8-10-8--/12-------12-/10--8--------8--10--8-8------
D|-----------------------------10-8-------------10----
A|----------------------------------------------------
E|----------------------------------------------------

now play rif.1 again

Verse 1:

Cm                 F
Back to the grass, Facing the sunlight

Cm                  Bb               F     
Arms out stretched, Reaching for the sky

.... Repeat and then play rif.1 ....

Play rif.1

Verse 2:

Cm                 F
Crusin' the block, On the bicycle

Cm              F
You right baby, No fosel fuel

Cm                  F
Cruisin' the block, Got to be cool

Cm           F
Right baby,  No fosel fuel 

Solo thingy (begining's almost the same as the intro)

Play rif.1

E|-------------------------------------------------------------------
B|-8-9-8h9p8----8-9-8-11--11b--11--9-9-8-9-8h9----8----8-9-8h9-------
G|----------10--------------------------------10--------------10--8--
D|-------------------------------------------------------------------
A|-------------------------------------------------------------------
E|-------------------------------------------------------------------

E|---------------------------------------------------------
B|------------------11-------------------------------11----
G|-----8-10-8--/12--------12-/10--8------8-10-8--/12-------
D|-10--------------------------------10--------------------
A|---------------------------------------------------------
E|---------------------------------------------------------

E|------------------------------------------8-9-8h9p8----8-9-9---12h13-13-----
B|--8-9-8h9p8-----8------------9-8--9/11-11-----------11----------------------
G|------------10----10-9h10-10------------------------------------------------
D|----------------------------------------------------------------------------
A|----------------------------------------------------------------------------
E|----------------------------------------------------------------------------

E|-12h13p12---12--------------------------------------------------------------
B|----------------14-----14-13--11--9p8-8h9p8-----------8-9-8h9p8-----8-------
G|--------------------------------------------9h10-10------------10-----10----
D|----------------------------------------------------------------------------
A|----------------------------------------------------------------------------
E|----------------------------------------------------------------------------

E|---------------------
B|-8--------------9-8--
G|---10-9h10--10-------
D|---------------------
A|---------------------
E|---------------------

Play riff.1

Play verse1. 

The bridges are always Cm and F just with different rythms. 

I'm not going to tab anymore leads because they follow the same idea and that
bridge goes on forever just with little fills. Just play around and you'll figure
it out.
Tap to rate this tab
# A B C D E F G H I J K L M N O P Q R S T U V W X Y Z