Song name
# A B C D E F G H I J K L M N O P Q R S T U V W X Y Z

Walt Disney - Mickey Mouse Club March tab

-------------------------------------------------------------------------------
			     Mickey Mouse Club March - Walt Disney
-------------------------------------------------------------------------------
Tabbed by: Marc Woodford


Tuning: Standard

e|--3--3-3--3-3--3-3--3-5--3-2--0--------------------------------------------|
B|--------------------------------3------------------------------------------|
G|---------------------------------------------------------------------------|
D|---------------------------------------------------------------------------|
A|---------------------------------------------------------------------------|
E|---------------------------------------------------------------------------|

e|--3-3-3--3-3-3--7-3--5-2--3------------------------------------------------|
B|---------------------------------------------------------------------------|
G|---------------------------------------------------------------------------|
D|---------------------------------------------------------------------------|
A|---------------------------------------------------------------------------|
E|---------------------------------------------------------------------------|

e|--3--3-3--3-3--3-3--3-5--3-2--0--------------------------------------------|
B|--------------------------------3------------------------------------------|
G|---------------------------------------------------------------------------|
D|---------------------------------------------------------------------------|
A|---------------------------------------------------------------------------|
E|---------------------------------------------------------------------------|

e|--3-3-3--3-3-3--7-3--5-2--3------------------------------------------------|
B|---------------------------------------------------------------------------|
G|---------------------------------------------------------------------------|
D|---------------------------------------------------------------------------|
A|---------------------------------------------------------------------------|
E|---------------------------------------------------------------------------|

e|--3-3-0--3-3-------0--0-0--0-0--0-2-3-5------------------------------------|
B|-------------3---3---------------------------------------------------------|
G|---------------------------------------------------------------------------|
D|---------------------------------------------------------------------------|
A|---------------------------------------------------------------------------|
E|---------------------------------------------------------------------------|

e|--3--3-3--3-3--3-3--3-5--3-2--0--------------------------------------------|
B|--------------------------------3------------------------------------------|
G|---------------------------------------------------------------------------|
D|---------------------------------------------------------------------------|
A|---------------------------------------------------------------------------|
E|---------------------------------------------------------------------------|

e|--3-3-3--3-3-3--7-3--5-2--3------------------------------------------------|
B|---------------------------------------------------------------------------|
G|---------------------------------------------------------------------------|
D|---------------------------------------------------------------------------|
A|---------------------------------------------------------------------------|
E|---------------------------------------------------------------------------|


| /  slide up
| \  slide down
| h  hammer-on
| p  pull-off
| ~  vibrato
| +  harmonic
| x  Mute note
===============================================================================
Tap to rate this tab
 
# A B C D E F G H I J K L M N O P Q R S T U V W X Y Z