Guitaretab - guitar tabs
Song name
# A B C D E F G H I J K L M N O P Q R S T U V W X Y Z

Waltz Reprise - Reaching Out tab

Waltz Reprise
Reaching Out
Be Still Know
2007
Submitted by: paramore_fans@yahoo.com

To download this song, go to this link
http://vindicatedfeedback44.multiply.com/music/item/151/Waltz_Reprise

Tuning: Standard EADGBe

Chords used:
Bm -   x24432
D -    xx0232
A -    x02220
G -    320033
A/C# - x476xx
F#m -  244222


Intro:

Guitar 2:
            Bm
e|-14--------------------|
B|----15----15-14--------|
G|-------16--------14-14-|
D|-----------------------|
A|-----------------------|
E|-----------------------|
            x2


Chorus: x2
            Bm                       D
e|-14--------------------|-------------------------|
B|----15----15-14--------|----15-------17-------15-|
G|-------16--------14-14-|-14----14-14----14-14----|
D|-----------------------|-------------------------|
A|-----------------------|-------------------------|
E|-----------------------|-------------------------|
           x2                        x2

            G                        G
e|-14--------------------|-------------------------|
B|----15----15-14--------|----15-------17-------15-|
G|-------16--------14-14-|-14----14-14----14-14----|
D|-----------------------|-------------------------|
A|-----------------------|-------------------------|
E|-----------------------|-------------------------|
           x2                        x2


Chorus:
Bm          D               G
  We're now breathing (this cover) that starts to fill my lungs
          Bm                     D
We're now reaching out we're now reaching out
      G
These cries for help that fill without
(Come on for the match you sung now)

[ Tab from: http://www.guitaretab.com/w/waltz-reprise/164192.html ]
Verse 1:
Bm                G                       D
  The last time I saw you I truely on the way
A/C#
You found out was it nothing I would
Bm                        G
waste another day and you wouldn't still alive
           D
I'm out of sight and out of mind
           A/C#
I'm out of sight and out of mind


Interlude:
            Bm                       D
e|-14--------------------|-------------------------|
B|----15----15-14--------|----15-------17-------15-|
G|-------16--------14-14-|-14----14-14----14-14----|
D|-----------------------|-------------------------|
A|-----------------------|-------------------------|
E|-----------------------|-------------------------|
           x2                        x2

            F#m                      G
e|-14--------------------|-------------------------|
B|----15----15-14--------|----15-------17-------15-|
G|-------16--------14-14-|-14----14-14----14-14----|
D|-----------------------|-------------------------|
A|-----------------------|-------------------------|
E|-----------------------|-------------------------|
           x2                        x2

                     Bm-A-Bm-A-Bm-A-Bm-A(x2)
Don't make your self go


(Repeat Chorus 1)


Verse 2:


Male voice:
Bm        A               G                    Bm
  (I'm as useless as the stand trapping myself in
        A                G
Keeping hearing the same words over and over again)


Jenna: While the male voice is back-upping
 Bm     A    G            Bm              A           G
Avoiding the obvious I'm spending time on my uncertainty
     Bm             A       G
Just come away with me Just come away with me
      Bm     A        G Bm-A-G
Don't count away with me
         Bm              A       G(hold)
And I'm spending time on my uncertainty


Chorus 2:
 Bm     A     G
Avoiding the obvious
      G
(this cover) that starts to fill my lungs
          Bm                     D
We're now reaching out we're now reaching out
      G
These cries for help that fill without
(Come on for the match you sung now)


(Repeat Chorus 1)

Outro: Bm-A-Bm-A-Bm-A-Bm-A(x2)
Related for Reaching Out tab
×
Reaching Out