Song name
# A B C D E F G H I J K L M N O P Q R S T U V W X Y Z

Wanastowi Vjecy - Kdo Se Boji Nesmi Do Nebe tab

-------------------------------------------------------------------------------
	       Kdo se bojí nesmí do nebe - Wanastowi Vjecy
-------------------------------------------------------------------------------

Artist’s homepage is: http://www.wanastowivjecy.cz/index.php

Email: Queenas@seznam.cz
Tuning:stadard


Verse1:

      Asus         E           G          D
e|-----------|-----------|----3------|----2-------|
B|--------0--|-----------|------3----|------3-----|
G|------2----|--------1--|--------0--|--------2---|5x
D|----2------|------2----|-----------|-(0)--------|
A|--0--------|----2------|-----------|------------|
E|-----------|--0--------|--3--------|------------|


Chorus1:

      E    G    D   Asus
e|----0----3----2----0----|
B|----0----3----3----0----|
G|----1----0----2----2----|4x
D|----2----0----0----2----|
A|----2----2---------0----|
E|----0----3---------0----|


Verse2:

e|-----------|-----------|----4------|-----------|
B|--------1--|-----------|------4----|----8------|
G|------3----|--------2--|--------5--|------8----|4x
D|----3------|------3----|-----------|--------8--|
A|--1--------|----3------|-----------|--6--------|
E|-----------|--1--------|--4--------|-----------| 


Bridge:

e|---(6)---(8)----(4)---(4)----|
B|---(6)---(8)----(4)---(4)----|
G|---(6)----10-----6-----6-----|2x
D|----8-----10-----6-----6-----|
A|----8-----8------4-----4-----|
E|----6----(8)----(4)---(4)----|
(x) - without these tones, it sounds probably even better.

Chorus2:

e|----1----4----6----1----|
B|----1----4----8----1----|
G|----2----5----8----3----|4x
D|----3----6----8----3----|
A|----3----6----6----1----|
E|----1----4----6----1----|


Verse2 to fade out.

Made on December 3rd at 3am in Prague, Queenas ;)
ps. Great song

Notice!

U can play Verse1 this way too:
e|-----------|-----------|----3------|-----------|
B|--------0--|-----------|------3----|----7------|
G|------2----|--------1--|--------4--|------7----|5x
D|----2------|------2----|-----------|--------7--|
A|--0--------|----2------|-----------|--5--------|
E|-----------|--0--------|--3--------|-----------|

And Chorus1: (this way it sounds better to me!)
e|----0----3----5----0----|
B|----0----3----7----0----|
G|----1----4----7----2----|4x
D|----2----5----7----2----|
A|----2----5----5----0----|
E|----0----3----5----0----|
Tap to rate this tab
 
# A B C D E F G H I J K L M N O P Q R S T U V W X Y Z