Song name
# A B C D E F G H I J K L M N O P Q R S T U V W X Y Z

Wander Wildner - Eu Nao Consigo Ser Alegre O Tempo Inteiro chords

Highlighted       Show chord diagrams
http://www.youtube.com/watch?v=G3yG4vjGcVc


e|-------------------------------------------------------------------------2-------| Vezes
B|-8~--8-10-12-13-12-10-12-10-12-10-8----8-10-12-13-12-10-12-10-8------------------|
G|----------------------------------------------------------------11~~-------------|
D|---------------------------------------------------------------------------------|
A|---------------------------------------------------------------------------------|
E|---------------------------------------------------------------------------------|

Em                                       Am
Você sempre surge em minha mente, sempre você e ninguém mais
Em                                 C             D
É de você que eu me lembro, sempre você e ninguém mais
              G       C             D
....e ninguém mais... ...e ninguém mais

Em                                      Am
Eu sempre tento e não consigo, então às vezes quando a noite chega
Em                             C          D              
G   C
Eu fico só comigo mesmo, só me resta a saudade como companhia
             D
Como companhia...

          G                         C
Eu não consigo ser alegre o tempo inteiro  (2x)

          D
Eu não consigo...        D|-0--0-2--2-4--5-4-2-0|



G C G C D


e|----------------------------------------------------------------------------|
B|-8~--8-10-12-17-15-12-13-12-13-12-8~---8-10-12-17-15-12-13-12-10------------|
G|-----------------------------------------------------------------11~~-------|
D|----------------------------------------------------------------------------|
A|----------------------------------------------------------------------------|
E|----------------------------------------------------------------------------|


e|-----------------------------------------------------------------------------|
B|-8~--8-10-12-13-12-10-12-10-12-10-8----8-10-12-13-12-10-12-10-8--------------|
G|----------------------------------------------------------------11~~---------|
D|-----------------------------------------------------------------------------|
A|-----------------------------------------------------------------------------|
E|-----------------------------------------------------------------------------|

Em                                      Am
Você me diz que nao me quer mais, que agora eu sou seu grande amigo
Em                             C          D              
G   C
Você me quer só metade, mas pra mim você está em toda parte
          D
Em toda parte...

refrão 2x

        G      C
Eu vou fazer um iê iê iê  2x
         D         G
Eu sou o rei do iêiêiê.
Tap to rate this tab
 
# A B C D E F G H I J K L M N O P Q R S T U V W X Y Z