Song name
# A B C D E F G H I J K L M N O P Q R S T U V W X Y Z

War From A Harlots Mouth - If You Want To Blame Us For Something Please Abuse This Song tab

War From A Harlots Mouth
If You Want To Blame Us For Something, Please Abuse This Song
Tuning: Drop Bb


verse
|----------------|------------------|----------------|------------| x4
|----------------|------------------|----------------|------------|
|----------------|------------------|----------------|-10-9-8-7\6-|
|-6---3---2---2*-|------------------|-3---6---2---2*-|-9--8-7-6\5-|
|-6---3---2------|-3333222233332222-|-3---6---2------|------------|
|-6---3---2------|------------------|-3---6---2------|------------|


fill
|-------------|
|-------------|
|-------------|
|-6---3---2---|
|-6---3---2---|
|-6---3---2---|


bridge
|-----------5-6--8-9------------------------------------|
|-----------4-5--7-8------------------------------------|
|-------------------------------------------------------|
|----------------------22-2-2-2-4--22-22-22----8-9---16-|
|222111000-------------22-2-2-2-3--22-22-22----7-8---15-|
|----------------------22-2-2-2----22-22-22-------------|


breakdown: prt 1(listen to pattern when guitars and machine guns switch off.)

breakdown: prt 2 (guitars and machine guns play below riff togethor)

|-------------------------------------| x4
|-------------------------------------|
|-------------------------------------|
|-2222222222-222222-2222222222-222222-|
|-2222222222-222222-2222222222-222222-|
|-2222222222-222222-2222222222-222222-|
Tap to rate this tab
 
# A B C D E F G H I J K L M N O P Q R S T U V W X Y Z