Song name
# A B C D E F G H I J K L M N O P Q R S T U V W X Y Z

War From A Harlots Mouth - Mulder tab

Drop C (CGCFAD)

0:02-1:23
D-----------------------------------------------|
A-----------------------------------------------|
F-----------------------------------------------|
C---8-8-8-----5-5-5-----1-1-1-----12-12-12------|
G---8-8-8-----5-5-5-----1-1-1-------------------|
C---8-8-8-----5-5-5-----1-1-1-------------------|

1:24-2:00
D------------------------------------------------------------------|
A------------------------------------------------------------------|
F--------------------------------2-2--2-2-2--2---------------------|
C--------------------------------3-3--3-3-3--3---7-7--7-7-5--5-----|
G---0-0--0-0-0--0-0-0--0-0-0--0------------------5-5--5-5-5--5-----|
C------------------------------------------------------------------|
Tap to rate this tab
# A B C D E F G H I J K L M N O P Q R S T U V W X Y Z