Song name
# A B C D E F G H I J K L M N O P Q R S T U V W X Y Z

War From A Harlots Mouth - A Grotesque Relationship tab

Tuning: Drop D down a whole-step (Drop C)-
D
A
F
C
G
C

  .  .  .                 .  .  .
|---------------------------------------------------------------|
|---------------------------------------------------------------|
|---------------------------------------------------------------|
|---------------------------------------------------------------|
|-0--0--0--3-3-6-3-5-3-6--0--0--0--3-3-6-3-5-3-6-5-5-8-5-6-5-8--|
|-0--0--0-----------------0--0--0-------------------------------|

  ....  ....    ....  ....    .
|---------------------------------|
|---------------------------------|
|---------------------------------|
|-------------------------------3-|
|-------------------------------2-|
|-0000--0000----0000--0000----0---|

|-----------8---------------8---------------8---------------8-|
|-----------7-------9-------7-------9-------7-------9-------7-|
|-------------------7---------------7---------------7---------|
|-0-----------------------------------------------------------|
|-0-----------------------------------------------------------|
|-0-----------------------------------------------------------|

  . . .     . . .     . . .     . . .
|--------------------------8---------8---|
|-------9---------9--------7---------7---|
|-------7---------7----------------------|
|----------------------------------------|
|-0-0-0-----0-0-0-----0-0-0-----0-0-0----|
|-0-0-0-----0-0-0-----0-0-0-----0-0-0----|

  ....  ....    ....  ....    .
|---------------------------------|
|---------------------------------|
|---------------------------------|
|-------------------------------3-|
|-------------------------------2-|
|-0000--0000----0000--0000----0---|

  ... ...  ... ... ... ..  ......
|---------------------------------|
|---------------------------------|
|---------------------------------|
|---------------------------------|
|---------------------------------|
|-000-000--000-000-000-00--000000-|

  ...........   ...........   ..........................  ............
|--------------------------------------------------------|-------------|
|--------------------------------------------------------|-------------|
|--------------------------------------------------------|-------------|
|---7-----7---------------------7-----7------------------|---7-----7---|
|---6-----6---------------------6-----6------------------|---6-----6---|
|-0---000---00---0000000000---0---000---0--00--000000000-|-0---000---0-|

|--------------------------------------------------------|
|------10------------------------------------------------|
|------7---------------------------5---------------------|
|-0-------------2-----2-------3----3--------2----1---1-1-|
|-0-------------2-----2---3-2-3---------2-1-2----1---1-1-|
|-0--------0-0--2-----2-------3-------------2----1---1-1-|

|--------------------------------------------------------|
|------10------------------------------------------------|
|------7--------------4------------5---------------------|
|-0-------------2-----2-------3----3--------2----1---1-1-|
|-0-------------2---------3-2-3---------2-1-2----1---1-1-|
|-0--------0-0--2-------------3-------------2----1---1-1-|

|----------------------------------------------------------------|
|------10-------------5------------------------------------------|
|------7--------------4------------5-----------------------------|
|-0-------------2-----2-------3----3--------2----1---1-1-1-0-----|
|-0-------------2---------3-2-3---------2-1-2----1---1-1-1-0-----|
|-0--------0-0--2-------------3-------------2----1---1-1-1-0-----|

http://www.myspace.com/warfromaharlotsmouth
Tap to rate this tab
# A B C D E F G H I J K L M N O P Q R S T U V W X Y Z