Song name
# A B C D E F G H I J K L M N O P Q R S T U V W X Y Z

War Of Ages - Absence Of Fear tab

Help us improve GuitareTab! Take a short survey!
1/2 STEP DOWN


INTRO:
e:------------------------------------------------------------------------|
B:------------------------------------------------------------------------|
G:--------------------------------------------------------------------7-5-|
D:---------------------10-------0000-000---------------------0000-000-7-5-|
A:-0000-000-10/12\10-8----8-7-5-0000-000-10/12\10-8-10-8-7-5-0000-000-5-3-|
E:-0000-000---------------------0000-000---------------------0000-000-----|
   .... ...                     .... ...

VERSE:                              ENDING NUMBER
e:------------------------------  first --second----|
B:------------------------------  -and- ----and-----|
G:------------------------------  third --fourth----|
D:-0--7-8-7---3-5-7---0-5-3-----  ----- ------5-7-8-|
A:------------------------------  3h5-5 -5-7-8------|
E:--00-0-0-000-0-0-000-0-0-00000  ----- ------------|

ill add the in between part later


BRIDGE:
e:------------------------------------------------------------------|
B:------------------------------------------------------------------|
G:------------------------------------------------------------------|
D:------------------------------------------------------------------|
A:-0-0-00-0-0-00-0-0-00---------------------------------------------|
E:-0-0-00-0-0-00-0-0-00-10-10-10-10-10-10-10-10---------------------|

e:---------------------------------|
B:---------------------------------|
G:---------------------------------|
D:---------------------------------|
A:-0-0-00-0-0-00-0-0-00------------|
E:-0-0-00-0-0-00-0-0-00-3-3-3-3-3*-|


insane gtr 2 part played behind the palm muted gtr 1
not enough time now i'll figure it out later and post it


dan berry

e-mail:
IMdanANDiRULE@aol.com
Related for Absence Of Fear tab