Song name
# A B C D E F G H I J K L M N O P Q R S T U V W X Y Z

War Of Ages - Salvation tab

this is a great song by an amazing band if you have any corrections just email me 
at bricefos@gmail.com
\

e|-------------------------------------------------------------------------|
B|-------------------------------------------------------------------------|
G|----------------------7779-----------------------------------------------|
D|----------10109------------10---------10109-5/7/9/10/9/7-----------------|
A|--000------------000--------------000------------------------------------|
E|-------------------------------------------------------------------------|
this part im not sure about its close enough
e|--------------15h19---------------------------------15h19---17/18/10-----|
B|-19bf19bf19bf------1519---------------------161719-----------------------|
G|-------------------------------------------------------------------------|
D|-------------------------------------151619------------------------------|
A|-------------------------------141519------------------------------------|
E|-------------------------141519------------------------------------------|

sweeping part
e|-------------13h16-----------------14h18------18h20p16-------------------|
B|-----------16-----16-------------16-----15--16---------------------------|
G|---------14---------15---------15---------16-----------------------------|
D|-------15-------------15-----17------------------------------------------|
A|--12h17-----------------12h19--------------------------------------------|
E|-------------------------------------------------------------------------|
Tap to rate this tab
# A B C D E F G H I J K L M N O P Q R S T U V W X Y Z