Song name
# A B C D E F G H I J K L M N O P Q R S T U V W X Y Z

War Of Ages - Through The Flames tab

this is a great song by a great band any requests or corrections will be accepted

e|--------------------------------------------------------------------|
B|----------------------------13--------------------------------------|
G|----------14-14-12--1414-12----12--10-------------------------------|
D|121212-10-----------------------------------------------------------| x?
A|--------------------------------------------------------------------|
E|--------------------------------------------------------------------|
  . . .
e|----------------------------------------------------------------------|
B|---------------------------------------------13-----------------------|
G|--------141214--------10141012------------12-----12-10----------------|
D|-121012----------1012----------12--121012-----------------------------| x?
A|----------------------------------------------------------------------|
E|----------------------------------------------------------------------|
                                      . . .
chorus chords im not sure how many  times you play them
e|---------------------------------------------------------------------------|
B|---------------------------------------------------------------------------|
G|-----------------14121214--------------------------------------------------|
D|-9--1210-5-----------------------------------------------------------------|
A|-9-------5---10------------------------------------------------------------|
e|-9-------5---10------------------------------------------------------------|


ill post the solo later when i figure it out
Tap to rate this tab
# A B C D E F G H I J K L M N O P Q R S T U V W X Y Z