Song name
# A B C D E F G H I J K L M N O P Q R S T U V W X Y Z

War Of Ages - Salvation tab

Song: Salvation
Artist: War of ages
Album: Arise and Conquer
Tuning: CGCFAD


Guitar one comes in first with the rhythm.

|---------------------------------------------|  |-----------------------------------------|
|---------------------------------------------|  |-----------------------------------------|
|--------------------------------5-xx-5-7-----|  |-----------------------------------------|
|----5--xx--8-xx-8p7---5--5--xx-----------8---|  |----5--xx--8-xx-8-7-5----5/7\5-----------|
|----5--xx-------------5--5--xx---------------|  |----5--xx-------------8--------5-5-6-8---|
|----5--xx-------------5--5--xx---------------|  |----5--xx--------------------------------|


Then guitar two comes in with the harmony part.

|---------------------------------------------|  |---------------------------------------------|
|---------------------------------------------|  |---------------------------------------------|
|-----------7-xx-7p5----------8-xx-8-10-7-----|  |-----------7-xx-7-5--------------------------|
|----5--xx----------5--5--xx------------------|  |----5--xx-----------8-7--8/10\8--------------|
|----5--xx----------5--5--xx------------------|  |----5--xx--------------------------5-5-6-8---|
|----5--xx----------5--5--xx------------------|  |----5--xx------------------------------------|
Tap to rate this tab
 
# A B C D E F G H I J K L M N O P Q R S T U V W X Y Z