Song name
# A B C D E F G H I J K L M N O P Q R S T U V W X Y Z

War Of Ages - All Consuming Fire tab

srry that this is only an intro... Gotten off youtube... not mine

|-------------------------------------------------------------------------|
|-------------------------------------------------------------------------|
|--------------------------------------7----------------------------------|
|0-------------------------------------7----------------------------------|
|0-------------------------------------5----------------------------------|
|0-0-0-0-0-0-0-0-0-0-0-0-0-0-0-0-0-0-0---0-0-0-0-0-0-0-0-0-0-0------------|

|-------------------------------------------------------------------------|
|-------------------------------------------------------------------------|
|-------------------------------------------------------------------------|
|-------------5-7--------------10-12--------------------------------------|
|-5-0-0-8-0-0-----8-0-0-12-0-0--------------------------------------------|
|-------------------------------------------------------------------------|

play 1st part again...
Tap to rate this tab
 
# A B C D E F G H I J K L M N O P Q R S T U V W X Y Z