War Of Ages - Battle On tab

-------------------------------------------------------------------------------
			BATTLE ON (solo) - War of Ages
-------------------------------------------------------------------------------
Tabbed by:Metallic_Shadow
Email:Metallic_Shadow@live.com.au

Tuning: Dropped D (DADGBe) 
NB: This is from their first self-titled album and hence in drop D not C!
I'm currently in the process of trying to figure out the rest of the solo
from Fire From the Tomb, and will post as soon as I'm finished.
If you have any questions and/or corrections feel free to email me. :)
Enjoy.

e|---------------------------------7-----------------------------------------|
B|-10-9-7--10-9----10-9-7--10-9-------9-10-7---10-9-7--10-9----10-9-7--10-9--|
G|--------------9---------------9---------------------------9---------------9|
D|---------------------------------------------------------------------------|
A|---------------------------------------------------------------------------|
D|---------------------------------------------------------------------------|

e|-7-------|------------7---7-9----7-9-7-9-10-9~-|-12-10h12p10\9-10-9\7-9-10-|
B|---9-10~-|-9-10-7--10---9-----10---------------|---------------------------|
G|---------|-------------------------------------|---------------------------|
D|---------|-------------------------------------|---------------------------|
A|---------|-------------------------------------|---------------------------|
D|---------|-------------------------------------|---------------------------|

e|-9-7h9p7----9-----------|
B|---------10---10-9-10-9-|
G|------------------------|
D|------------------------|
A|------------------------|
D|------------------------|

e|---------------------------------7-----------------------------------------|
B|-10-9-7--10-9----10-9-7--10-9-------9-10-7---10-9-7--10-9----10-9-7--10-9--|
G|--------------9---------------9---------------------------9---------------9|
D|---------------------------------------------------------------------------|
A|---------------------------------------------------------------------------|
D|---------------------------------------------------------------------------|

e|-7-------|------------7---7-9----7-9-7-9-10-9~-|-12-10h12p10\9-10-9\7-9-10-|
B|---9-10~-|-9-10-7--10---9-----10---------------|---------------------------|
G|---------|-------------------------------------|---------------------------|
D|---------|-------------------------------------|---------------------------|
A|---------|-------------------------------------|---------------------------|
D|---------|-------------------------------------|---------------------------|

e|-9-7----9-----------|
B|-----10---10-9~~----|
G|--------------------|
D|--------------------|
A|--------------------|
D|--------------------|

e|---------------------------------7-----------------------------------------|
B|-10-9-7--10-9----10-9-7--10-9-------9-10-7---10-9-7--10-9----10-9-7--10-9--|
G|--------------9---------------9---------------------------9---------------9|
D|---------------------------------------------------------------------------|
A|---------------------------------------------------------------------------|
D|---------------------------------------------------------------------------|

e|---------|------------7---7-9----7-9-7-9-10-9~-|-12-10h12p10\9-10-9\7-9-10-|
B|-9-10-9~-|-9-10-7--10---9-----10---------------|---------------------------|
G|---------|-------------------------------------|---------------------------|
D|---------|-------------------------------------|---------------------------|
A|---------|-------------------------------------|---------------------------|
D|---------|-------------------------------------|---------------------------|

e|-9-7h9p7----9-----------|
B|---------10---10-9-10-9-|
G|------------------------|
D|------------------------|
A|------------------------|
D|------------------------|

e|---------------------------------7-----------------------------------------|
B|-10-9-7--10-9----10-9-7--10-9-------9-10-7---10-9-7--10-9----10-9-7--10-9--|
G|--------------9---------------9---------------------------9---------------9|
D|---------------------------------------------------------------------------|
A|---------------------------------------------------------------------------|
D|---------------------------------------------------------------------------|

e|---------|------------7---7-9----7-9-7-9-10-9~-|-12-10h12p10\9-10-9\7-9-10-|
B|-9-10-9~-|-9-10-7--10---9-----10---------------|---------------------------|
G|---------|-------------------------------------|---------------------------|
D|---------|-------------------------------------|---------------------------|
A|---------|-------------------------------------|---------------------------|
D|---------|-------------------------------------|---------------------------|

e|-9-7----9-----------|
B|-----10---10-9~~----|
G|--------------------|
D|--------------------|
A|--------------------|
D|--------------------|

************************************

| /   slide up
| \   slide down
| h   hammer-on
| p   pull-off
| ~   vibrato
| +   harmonic
| x   Mute note
| b   Bend
| pb  Pre-bend
| br  Bend release
| pbr Pre-bend release
| brb Bend release bend

************************************
Tap to rate this tab
 
# A B C D E F G H I J K L M N O P Q R S T U V W X Y Z