Song name
# A B C D E F G H I J K L M N O P Q R S T U V W X Y Z

War Of Ages - Strength Within tab

Song Name: Strength Within
Artist: War of Ages
Album: Pride of the Wicked

Tabbed By: quesadilla1118
For questions, comments or corrections leave a comment on the song or my profile, 
or e-mail me at caseymsims@gmail.com 

I know this is just the intro, I'll get the rest of the song later.


Guitar Intro with dist. Come in with drums (0:05)

     PM PM PM PM PM PM PM PM PM PM
e||------------------------------------------|
B||------------------------------------------|
G||------------------------------------------|
D||--------------------------------9po--7po0-|
A||--4--4--4--6--6--6--7--7--7--7------------|
D||------------------------------------------|



  PM PM PM PM PM PM

e|-----------------------------------------|
B|-----------------------------------------|
G|-----------------------------------------|
D|--9--9--9--7--7--7--6h--7--4h--6--4---2--|
A|-----------------------------------------|
E|-----------------------------------------|


  PM PM PM PM PM PM PM PM PM PM
e|------------------------------------------|
B|------------------------------------------|
G|------------------------------------------|
D|--------------------------------9p--7--7--|
A|--4--4--4--6--6--6--7--7--7--7------------|
E|------------------------------------------|


  PM PM PM PM PM PM
e|-----------------------------------------------------|
B|-----------------------------------------------------|
G|--------------------13h--14--11h--13--9h--11--8h--9--|
D|--9--9--9--7--7--7-----------------------------------|
A|-----------------------------------------------------|
E|-----------------------------------------------------|


e|-------------------------------------------------------------------------------|
B|-------------------------------------------------------------------------------|
G|---------9--8------------------------13~--11--9--13h--14--11h--13--9h--11--8h--|
D|-9h--11--------9--11~--11h--13h--14--------------------------------------------|
A|-------------------------------------------------------------------------------|  x4
E|-------------------------------------------------------------------------------|

Intro End (0:35)

Tap to rate this tab
 
# A B C D E F G H I J K L M N O P Q R S T U V W X Y Z