Song name
# A B C D E F G H I J K L M N O P Q R S T U V W X Y Z

War Of Ages - Strength Within tab

Tuning: E standard
Try playing along with the track, it's pretty fun to play :)
(Slide: /) (Vibrato: ~) (Hammer-on: h)
|-------------------------------------------------------------------------------|
|-----------------------------------------------------------------10-7-9-7------|
|-----------------------------------------------------------------------9-9-6---|
|-------------9--99-77-66-76-7-4-6-4/2--------------9--99-77-66-76--------------|
|444-/666-7777-77----------------------444-/666-7777-77-------------------------|
|-------------------------------------------------------------------------------|

|-------------------------------------------------------------------------------|
|--------------7h9h10-9-7-7/9-10--9-----------------------7h9h10-9-7---7--------|
|689-8-6~-6h8h9----------9------11-9-11-9---689-8-6~-6h8h9----------9-8-898-----|
|-----9----------------------------------11------9-------------------------9-6~-|
|-------------------------------------------------------------------------------|
|-------------------------------------------------------------------------------|

|-------------------------------------------------------------------------------|
|--------------7h9h10-9-7-7/9-10--9----------------------7h9h10-9-7---7---------|
|689-8-6~-6h8h9----------9------11-9-11-9--689-8-6~-6h8h9----------9-8-898----6-|
|-----9----------------------------------11-----9--------------------------9-6--|
|-------------------------------------------------------------------------------|
|-------------------------------------------------------------------------------|
Tap to rate this tab
# A B C D E F G H I J K L M N O P Q R S T U V W X Y Z