Song name
# A B C D E F G H I J K L M N O P Q R S T U V W X Y Z

War Of Ages - Meb tab

This is my first tab, so please be nice, thankyou.
                                              song: M.E.B.
                                       artist: War of Ages
tunning E standurd then put capo on 3rd fret.

E|-------------------------------------------------------|
B|----------------------------------------------0--------|
G|---------2-------------2--------------2----------2-----|
D|------0-----0-------0-----0--------0-----0----------0--|
A|--2-------------4--------------5------------5----------|
E|-------------------------------------------------------|



E|----------------------------------------------------|
B|------------------3------------------------0--------|
G|---------------------0------------2-----------2-----|
D|---------0--------------0------0-----0-----------0--|
A|------2-----2---------------0-----------0-----------|
E|--3------------3------------------------------------|

play both above 2 times

E|-----------------------------------------------|
B|-----------------------------------------------|
G|--------2-----------0-----------2-----------2--|
D|-----0-----0-----0-----0-----0-----0-----0-----|
A|--------------------------2-----------0--------|
E|--2-----------3--------------------------------|

play above 3 times

                              (u-up stum   d-down strum)

  Gadd9                          D
    d   d u d u d   d u d u      d   d u d u d   d u d u
E|--3--                      E|--2--|
B|--3--                      B|--3--|
G|--0--                      G|--2--|
D|--0--                      D|--0--|
A|--2--                      A|--0--|
E|--3--                      E|--0--|

  Eadd9                          D
    d   d u d u d   d u d u      d   d u d u d u d u d u
E|--3--                      E|--2--|
B|--3--                      B|--3--|
G|--0--                      G|--2--|
D|--2--                      D|--0--|
A|--2--                      A|--0--|
E|--0--                      E|--0--|

play both above 3 times


E|-------------------------------------------------------|
B|----------------------------------------------0--------|
G|---------2-------------2--------------2----------2-----|
D|------0-----0-------0-----0--------0-----0----------0--|
A|--2-------------4--------------5------------5----------|
E|-------------------------------------------------------|



E|----------------------------------------------------|
B|------------------3------------------------0--------|
G|---------------------0------------2-----------2-----|
D|---------0--------------0------0-----0-----------0--|
A|------2-----2---------------0-----------0-----------|
E|--3------------3------------------------------------|




E|-------------------------------------------------------|
B|----------------------------------------------0--------|
G|---------2-------------2--------------2----------2-----|
D|------0-----0-------0-----0--------0-----0----------0--|
A|--2-------------4--------------5------------5----------|
E|-------------------------------------------------------|



E|--------------------------------------------------------|
B|------------------3------------------------0---------0--|
G|---------------------0------------2-----------2------2--|
D|---------0--------------0------0-----0-----------0---0--|
A|------2-----2---------------0-----------0------------4--|
E|--3------------3-------------------------------------0--|

let the last chord fade out, and vola, M.E.B. by War of Ages
Tap to rate this tab
 
# A B C D E F G H I J K L M N O P Q R S T U V W X Y Z