War - Spill The Wine tab

Band: War
Album: Eric Burden Declares 'War!'
Song: Spill the Wine
Year: 1970

Yo, this is my 2nd tab this year! If you have any questions
my email is: uriah_tull88@hotmail.com

Intro & Chorus

e|------------------------------------------------------------------------|
B|------------------------------------------------------------------------|
G|------------------------------------------------------------------------|
D|---3--2----------2-2-2--------3--2-------2-2-2-2------------------------|
A|----------1--1---------------------1--1---------------------------------|
E|------------------------------------------------------------------------|


Verse

e|-------------------------------------------------------------------------|
B|-------------------------------------------------------------------------|
G|-------------------------------------------------------------------------|
D|---3--2--------2-2-2-2--------3--2-----------------3--2---------2-2-2-2--|
A|---------1--1-----------------------1-1--3-3-3-3----------1--1-----------|
E|-------------------------------------------------------------------------|


That is what I heard, it's rather hard to hear over all the instruments,
but yeah, i guess...enjoy!!!
Tap to rate this tab
 
# A B C D E F G H I J K L M N O P Q R S T U V W X Y Z