Song name
# A B C D E F G H I J K L M N O P Q R S T U V W X Y Z

War - Tobacco Road tab

Band: War
Song: Tobacco Road
Album: Eric Burden Declares "War"
Year: 1970
Tuning: Standard


Ok so here's another song by War:

Intro & Verse

e|-----------------------------------------------------------------------|
B|-----------------------------------------------------------------------|
G|-----------------------------------------------------------------------|
D|-----------------------------------------------------------------------|
A|---7--7--0--1--2--5--5--2--1----------7--7--0--1--2--5--5--2--1--------|
E|------------------------------3--3-------------------------------3--0--|

Chorus 1

Now here on the choruses the rhythm is rather tricky so just kinda listen
to the song to get it on tempo.

     G      A      G      A
e|---3------0------3------0--------------------------------------------|
B|---3------3------3------3--------------------------------------------|
G|---4------3------4------3--------------------------------------------|
D|---5------3------5------3--------------------------------------------|
A|---5------0------5------0--------------------------------------------|
E|---3-------------3---------------------------------------------------|


Chorus 2

   D      Am     D      Am
e|---2------0------2------0--------------------------------------------|
B|---3------1------3------1--------------------------------------------|
G|---2------2------2------2--------------------------------------------|
D|---0------2------0------2--------------------------------------------|
A|----------0-------------0--------------------------------------------|
E|---------------------------------------------------------------------|


Yeah, so this is the tab its kinda hard to figure out the rhythm in both choruses, but 
again I've only been playing for 3 years so that kind of explains it...enjoy

if you have any questions my email is: uriah_tull88@hotmail.com
Tap to rate this tab
 
# A B C D E F G H I J K L M N O P Q R S T U V W X Y Z