Song name
# A B C D E F G H I J K L M N O P Q R S T U V W X Y Z

War - Me And Baby Brother tab

----------------1----------------1----------------1--|
----------------3----------------3----------------3--|
----------------2----------------2----------------2--|
--3-3-1-3--1-3--0--3-3-1-3--1-3--0--3-3-1-3--1-3--0--|
-----------------------------------------------------|
-----------------------------------------------------|

that really is pretty much to whole song
except for the part

------------------------------------------------|
------------------------------------------------|
------------------------------------------------|
-0-0--00-0-0-00-0-0-00-0-0-0-00--0-00-0-0-00-0--|
------------------------------------------------|
------------------------------------------------|
 i remember the days we used to fight to gether

----------------1----------------1----------------1--|
----------------3----------------3----------------3--|
----------------2----------------2----------------2--|
--3-3-1-3--1-3--0--3-3-1-3--1-3--0--3-3-1-3--1-3--0--|
-----------------------------------------------------|
-----------------------------------------------------|

------------------------------------------------|
------------------------------------------------|
------------------------------------------------|
-0-0--00-0-0-00-0-0-00-0-0-0-00--0-00-0-0-00-0--|
------------------------------------------------|
------------------------------------------------|
 i remember the days we used to fight to gether

----------------1----------------1----------------1--|
----------------3----------------3----------------3--|
----------------2----------------2----------------2--|
--3-3-1-3--1-3--0--3-3-1-3--1-3--0--3-3-1-3--1-3--0--|
-----------------------------------------------------|
-----------------------------------------------------|
 Me and baby brother used to run to gether

LYRICS:
me and baby brother
used to run together

me and baby brother
used to run together
hey hey hey hey

drunk on one another
headed for the corner

drunk on one another
headed for the corner
hey hey
Trippin' on his mind
Is like drinkin' funky wine
by the river

Trippin' on his mind
Is like drinkin' funky wine
by the river

me and baby brother
used to run together

me and baby brother
used to run together
hey hey hey hey

drunk on one another
headed for the corner

drunk on one another
headed for the corner

I remember the days
We used to fight together

I remember the days
We used to fight together

Me and baby brother
used to run together

Me and baby brother
used to run together

Shot down baby brother
whoa ho ho ho!
And they call it law and order!
hey hey hey
Come back baby brother
Come back baby brother
i Love my
Come back baby brother
Come back baby brother
Tap to rate this tab
 
# A B C D E F G H I J K L M N O P Q R S T U V W X Y Z