Song name
# A B C D E F G H I J K L M N O P Q R S T U V W X Y Z

War - Cisco Kid tab

                               The Cisco Kid
                                    WAR

intro:
|--------------------------------------------------|
|----------------------------------------------/15-|
|--------------------------------------------------|
|--------------------------------------------------|
|-3-5-3-5-----2-3-2-3-------------3-5-3-5----------|
|-----------------------1-3-1-3--------------------|

Chords (played with electric guitar and a wah pedal):
Dm                            C
The Cisco Kid was a friend of mine
|----------------------------------4-3-1---|
|----------------------------------------3-|
|------------------------------------------|
|------------------------------------------|
|------------------------------------------|
|------------------------------------------|

Dm                            C
The Cisco Kid was a friend of mine
|----------------------------------4-3-1---|
|----------------------------------------3-|
|------------------------------------------|
|------------------------------------------|
|------------------------------------------|
|------------------------------------------|

Am                                Dm
He drink whiskey, Poncho drinkin' wine
|--------------------------------------4-3-1---|
|--------------------------------------------3-|
|----------------------------------------------|
|----------------------------------------------|
|----------------------------------------------|
|----------------------------------------------|

Am   C   Dm
Bai  la  ba

Am   C   Dm
Bai  la  ba
Tap to rate this tab
 
# A B C D E F G H I J K L M N O P Q R S T U V W X Y Z