Song name
# A B C D E F G H I J K L M N O P Q R S T U V W X Y Z

Warbringer - At The Crack Of Doom tab

e|--------------------------------------|
B|---------------------------3----------|
G|-------4-3-----------4-3--------------|
D|---4-5-----4-----4-5-----4------------|
A|-2-------------2----------------------|
E|--------------------------------------|

e|-------------------------------------------------------------|
B|------------------------------------------------------3333---|
G|--------------4444333333------------------44443333-----------|
D|-----44445555-----------4444------44445555--------4444-------|
A|-2222-------------------------2222---------------------------|
E|-------------------------------------------------------------|
Tap to rate this tab
 
# A B C D E F G H I J K L M N O P Q R S T U V W X Y Z