Song name
# A B C D E F G H I J K L M N O P Q R S T U V W X Y Z

Warbringer - Onslaught tab

Warbringer - Onslaught intro

It's on their awesome demo 'Born Of The Ruins'
You can look it up on youtube if you don't know it yet.
They still play it live now and then.
I didn't do anything but the harmonized intro.
I kindof suck at tabbing but the songs I really like and that aren't tabbed
yet, those I feel like tabbing and I usually just get the intro or so.

Tuning:

Guitar 1:
Half Step Down (Low to high: D#G#C#F#A#D# or EbAbDbGbBbEb)

Guitar 2:
Half Step Down (Low to high: D#G#C#F#A#D# or EbAbDbGbBbEb)


Guitar 1

----------------------------------------------------|
----------------------------------------------------|
----------------------------------------------------|
---------------------------11-10-11---10-9-10---8-7-|
-/7---10-9-10---11-10-11----------------------------|
----------------------------------------------------|
(0:02 - 0:29)
X4

End with the 7th fret on the A string (the one you start the riff with)

Guitar 2

----------------------------------------------------|
----------------------------------------------------|
----------------------------------------------------|
---------------------------11-10-11---10-9-10---8-7-|
-/7---10-9-10---11-10-11----------------------------|
----------------------------------------------------|
(0:02 - 0:13)
X2

----------------------------------------------------|
----------------------------------------------------|
---------------------------11-10-11---10-9-10---8-7-|
-/7---10-9-10---11-10-11----------------------------|
----------------------------------------------------|
----------------------------------------------------|
(0:14 - 0:29)
X2

End with the 7th fret on the D string (the one you start the second riff with)
Tap to rate this tab
 
# A B C D E F G H I J K L M N O P Q R S T U V W X Y Z