Song name
# A B C D E F G H I J K L M N O P Q R S T U V W X Y Z

Warcry - El Guardian De Troya tab

----------------------------------------------------------------------------
			     El Guardian de Troya - WarCry
----------------------------------------------------------------------------
Tabbed by:Zunegun
Email:terra_arme@hotmail.com

Tuning:Standard

Intro: (0:00-00:34)
e|----------------------------------------------------------------------|
B|----------------------------------------------------------------------|
G|----------------------------------------------------------------------|
D|------2--4--5-------2--4--5-----2--4--5-4-2-5-7-5-4-7-9---------------|
A|----2-------------2-----------2---------------------------------------|
E|----------------------------------------------------------------------|

e|----------------------------------------------------------------------|
B|----------------------------------------------------------------------|
G|-----2--4--4/5--4--2--4--2----2p4--2--5--2----------------------------|
D|---2-----------------------2---------------4--------------------------|
A|----------------------------------------------------------------------|
E|----------------------------------------------------------------------|

e|----------------------------------------------------------------------|
B|----------------------------------------------------------------------|
G|-----2--4--4/5--4--2--4--2----2p4--2--5~~~----------------------------|
D|---2-----------------------2------------------------------------------|
A|----------------------------------------------------------------------|
E|----------------------------------------------------------------------|

Pues tengo solo esto y pues lo que sigue es casi casi lo mismo pero con distorsion solo 
cambia algo... cuando lo saque pues lo publico.
Tap to rate this tab
# A B C D E F G H I J K L M N O P Q R S T U V W X Y Z