Song name
# A B C D E F G H I J K L M N O P Q R S T U V W X Y Z

Warfaze - Protikkha tab

Protikkha (warfaze) intro

e-----------0-------0-------------------|
b-------0-----0-------0-----------------|
g-----6---6-----6-------6---------------|
D---7--------------7--------------------|
A-0-------------------------------------|
E---------------------------------------|

e------------0-------0------------------|
b--------0-----0-------0----------------|
g------6---6-----6-------6--------------|
D----7--------------7-------------------|
A---------------------------------------|
E-4-------------------------------------|

e------------0--------0-----------------|
b--------0-----0--------0---------------|
g------6---6-----6--------6-------------|
D----7---------------7------------------|
A---------------------------------------|
E-3-------------------------------------|

e------------0--------0-----------------|
b--------0-----0--------0---------------|
g------6---6-----6--------6-------------|
D----7---------------7------------------|
A---------------------------------------|
E-2-------------------------------------|
Tap to rate this tab
# A B C D E F G H I J K L M N O P Q R S T U V W X Y Z