Song name
# A B C D E F G H I J K L M N O P Q R S T U V W X Y Z

Warfaze - Moharaj tab

Moharaj Intro
Warfaze
tabbed by:Tanvir Ahmed
tanvirahmed7170@yahoo.com

E-------------------------------------------------------------|
B-------------------------------------------------------------|
G-------------------------------------------------------------|
D------------6---4-4---6---4-6-4---5--4--0--2-----------------|
A--4--4--4--6---4-4---6---4-6-4-------------------------------|
E--4--4--4----------------------------------------------------|


E-------------------------------------------------------------|
B-------------------------------------------------------------|
G-------------------------------------------------------------|
D-----6---4---4---6----4-6-4----------------------------------|
A--4--6---4---4---6----4-6-4---5--4--0---2--------------------|
E--4----------------------------------------------------------|
Tap to rate this tab
 
# A B C D E F G H I J K L M N O P Q R S T U V W X Y Z