Guitaretab - guitar tabs
Song name
# A B C D E F G H I J K L M N O P Q R S T U V W X Y Z

Warfield - Moderna Druzba tab

Band: Warfield
Album: Iluzija
Song: Moderna druzba
Band website: http://www.myspace.com/bandwarfield

Standard tuning: E,A,D,G,B,E

Timing is made from original CD, for those who use music from Jamendo, could be little different.

contact: janpecnik@hotmail.com

Intro: Guitar 1 (0.00 - 0.21)
E|---------------------------------------------------------|
B|---------------------------------------------------------|  
G|---------------444444------------------------------------| play 2x
D|--444444--------------------444444-----------------------|  
A|---------55/444-------55/444-------55/444--222222-55/444-|  
E|---------------------------------------------------------|

Intro Riff: Guitar 2 (0.12 - 0.21)
E|-------------------------------|
B|-------------------------------|
G|--------------------22222------| play 2x
D|--44444-22222-44444-22222------|
A|--44444-22222-44444-00000------|
E|--22222-00000-22222------------|

Verse: Guitar 1+2 (0.22 - 1.12)
E|-------------------------|--------------------| 
B|-------------------------|--------------------|
G|------6-7-6--44444-77-6--|------6/7-6/7-6s7---| 
D|-4444-6-7-6--44444-77-6--|-4444-6/7-6/7-6s7---| 
A|-4444-4-5-4--22222-55-4--|-4444-4/5-4/5-4s5---|
E|-2222--------------------|-2222---------------|
  |----------4x----------|  |-------4x-------|

E|-------------------------|--------------------| 
B|-------------------------|--------------------|
G|------6-7-6--44444-77-6--|------6/7-6/7-6s7---| 
D|-4444-6-7-6--44444-77-6--|-4444-6/7-6/7-6s7---| 
A|-4444-4-5-4--22222-55-4--|-4444-4/5-4/5-4s5---|
E|-2222--------------------|-2222---------------|
  |----------2x----------|  |-------4x-------|

Chorus: Guitar 1+2 (1.13 - 1.31)
E|------------------------|----------------------------------|
B|------------------------|Gtr1                              |
G|-22222------------------|                                  |
D|-22222-22222-44444444---|                                  |
A|-00000-22222-44444444---|                                  |
E|-------00000-22222222---|                                  | play 4x
|                         |                                  |
E|-----------------------------------------------------|     |  
B|-----------------------------------------------------|     |
G|--12h10-12--12---11h9-11--11--10h8-10-10--10h8-10-10-|Gtr2 |
D|----------11------------10-----------9-----------9---|     |
A|-----------------------------------------------------|     |
E|-----------------------------------------------------|-----|
                         
Verse: Guitar 1+2 (1.32 - 2.02)
E|-------------------------|--------------------| 
B|-------------------------|--------------------|
G|------6-7-6--44444-77-6--|------6/7-6/7-6s7---| 
D|-4444-6-7-6--44444-77-6--|-4444-6/7-6/7-6s7---| 
A|-4444-4-5-4--22222-55-4--|-4444-4/5-4/5-4s5---|
E|-2222--------------------|-2222---------------|
  |----------4x----------|  |-------4x-------|
[ Tab from: http://www.guitaretab.com/w/warfield/187441.html ]
E|-------------------------|--------------------| 
B|-------------------------|--------------------|
G|------6-7-6--44444-77-6--|------6/7-6/7-6s7---| 
D|-4444-6-7-6--44444-77-6--|-4444-6/7-6/7-6s7---| 
A|-4444-4-5-4--22222-55-4--|-4444-4/5-4/5-4s5---|
E|-2222--------------------|-2222---------------|
  |----------2x----------|  |-------4x-------|

Chorus: Guitar 1+2 (2.03 - 2.24)
E|------------------------|----------------------------------|
B|------------------------|Gtr1                              |
G|-22222------------------|                                  |
D|-22222-22222-44444444---|                                  |
A|-00000-22222-44444444---|                                  |
E|-------00000-22222222---|                                  | play 4x
|                         |                                  |
E|-----------------------------------------------------|     |  
B|-----------------------------------------------------|     |
G|--12h10-12--12---11h9-11--11--10h8-10-10--10h8-10-10-|Gtr2 |
D|----------11------------10-----------9-----------9---|     |
A|-----------------------------------------------------|     |
E|-----------------------------------------------------|-----|

Post Chorus: Guitar 1+2+3 (2.25 - 2.44)               
E|------------------------|----------------------------------|
B|------------------------|Gtr1                              |
G|-22222------------------|                                  |
D|-22222-22222-44444444---|                                  |
A|-00000-22222-44444444---|                                  |
E|-------00000-22222222---|                                  | play 4x
|                         |                                  |
E|----------------------------------------------------|      |
B|----------------------------------------------------|Gtr3  |
G|---(11)(11)(11)(11)-99999-77777--6/7-9-7-6----------|      |
D|----------------------------------------------------|      |
A|----------------------------------------------------|      |
E|----------------------------------------------------|------|
|                                                            *
E|-----------------------------------------------------|     |  
B|-----------------------------------------------------|     |
G|--12h10-12--12--11h9-11--11--10h8-10-10--10h8-10-10--|Gtr2 | last 2 times
D|----------11-----------10-----------9-----------9----|     |
A|-----------------------------------------------------|     |
E|-----------------------------------------------------|-----|

Outro: Guitar 1+2 (2.45 - 3.16)
E|--------------------| 
B|--------------------|
G|------6/7-6/7-6s7---| play 4x
D|-4444-6/7-6/7-6s7---|
A|-4444-4/5-4/5-4s5---|
E|-2222---------------|

E|-------------------------|
B|-------------------------|
G|------6-7-6--44444-77-6--| play 4x
D|-4444-6-7-6--44444-77-6--| 
A|-4444-4-5-4--22222-55-4--|
E|-2222--------------------|

End: Guitar 1 
E|-----------|
B|-----------|
G|-----------| 
D|-444-4\----| 
A|-444-4\----|
E|-222-2\----|
 
*****Legend*****
| h - hammer on
| / - slide up
| \ - slide down
| ()- ghost note



Related for Moderna Druzba tab
Advertisement will be closed in 10 seconds