Song name
# A B C D E F G H I J K L M N O P Q R S T U V W X Y Z

Warfield - Freeday tab

Band: Warfield
Album: Iluzija
Song:Freeday
Band website: http://www.myspace.com/bandwarfield

Standard tuning: E,A,D,G,B,E

Timing is made from original CD, for those who use music from Jamendo, could be little different.

contact: janpecnik@hotmail.com

Intro: Guitar 1 (0.0 - 0.21)
E|-----------------------|-----------------------|-----------------------|
B|--8--11--10-/13--11-10-|--8--11--10-/13--11-10-|--8--11--10-/13--11-10-|
G|-----------------------|-----------------------|-----------------------|Guitar1
D|-----------------------|-----------------------|-----------------------|
A|-----------------------|-----------------------|-----------------------|
E|-----------------------|-----------------------|-----------------------|
 |
E|-----------------------|-----------------------|-----------------------|
B|-----------------------|-----------------------|-----------------------|
G|-----------------------|-----------------------|-----------------------|Guitar2
D|-----------------------|-555--888--777-1010-87-|5555-8888-7777-1010-87-| 
A|-----------------------|-555--888--777-1010-87-|5555-8888-7777-1010-87-|  
E|-----------------------|-333--666--555-8-8--65-|3333-6666-5555-8-8--65-|

Riff 1: (0.22 - 0.53)
E|-----------------------------|--------|------------|
B|-----------------------------|        |------------|
G|--------------55555-33333----|play 6x |-----xxx----|play 1x
D|--55555-33333-55555-33333----|        |-555-xxx-5\-|
A|--55555-33333-33333-11111----|        |-555-xxx-5\-|
E|--33333-11111----------------|--------|-333-----3\-|

Riff 2: Guitar 1 (0.54 - 1.36)  Play Riff 2x (second time do not play ending)
E|--------------------------------------------------------------------|
B|-13h15-1515151515--13h15-1515151515-12h13-1313131313-12-13-15-13-12-|       
G|--0--0--0-0-0-0-0---0--0--0-0-0-0-0--0--0--0-0-0-0-0--0--0--0--0--0-|play4x
D|--------------------------------------------------------------------|       
A|--------------------------------------------------------------------|      
E|--------------------------------------------------------------------|

Riff 2 End: 
E|------------|
B|------------|
G|-----xxx----|play 1x
D|-555-xxx-5\-|
A|-555-xxx-5\-|
E|-333-----3\-|

Riff 1: (1.37 - 2.22)
E|-----------------------------|--------|------------|
B|-----------------------------|        |------------|
G|--------------55555-33333----|play 6x |-----xxx----|play 1x
D|--55555-33333-55555-33333----|        |-555-xxx-5\-|
A|--55555-33333-33333-11111----|        |-555-xxx-5\-|
E|--33333-11111----------------|--------|-333-----3\-|

Riff 3: Guitar 1 (2.23 - 2.44)  
E|--------------------------------------------------------------------|
B|-13h15-1515151515--13h15-1515151515-12h13-1313131313-12-13-15-13-12-|      
G|--0--0--0-0-0-0-0---0--0--0-0-0-0-0--0--0--0-0-0-0-0--0--0--0--0--0-|play4x
D|--------------------------------------------------------------------|       
A|--------------------------------------------------------------------|       
E|--------------------------------------------------------------------|

Riff 1: (2.45 - end)
E|-----------------------------|--------|------------|
B|-----------------------------|        |------------|
G|--------------55555-33333----|play 9x |-----xxx----|play 1x
D|--55555-33333-55555-33333----|        |-555-xxx-5\-|
A|--55555-33333-33333-11111----|        |-555-xxx-5\-|
E|--33333-11111----------------|--------|-333-----3\-|

*****Legend*****
| h - hammer on
| / - slide up
| \ - slide down


Tap to rate this tab
 
# A B C D E F G H I J K L M N O P Q R S T U V W X Y Z