Song name
# A B C D E F G H I J K L M N O P Q R S T U V W X Y Z

Warlock - Without You tab

Help us improve GuitareTab! Take a short survey!
Hi! Well... because there are not too much tabs from this song (there's only the Dirk's 
I decided to tab it. This is my first work, so if you find mistakes let me know them. I 
it sounds cool yeeah haha. So hope you enjoy it!

Song   : Without You
Artist : Warlock
Album  : Burning the witches

Simbols:
h   = hammer-on
p   = pull-off
(b) = bend
(br)= bend and release
~   = vibrato
/   = slide up
\   = slide down
tr  = tremolo
[7] = Natural Harmonic (N.H.)
x   = Muting


RIFF 1 (clean w/chorus) There were some mistakes in the las tab, so I decided to replace them.

          Dm     (x3)   Dm           F            F              E             G
e: |-----------------|--------5------------1------------1-----|--------0-------------3------|
B: |------6-5h6------|------6---6--------1---1--------1---1---|------0---0------------------|
G: |----7-------7----|----7-------7----2-------2----2-------2-|----1-------1-------4---4----|
D: |--7--------------|--7------------3------------3-----------|------------------5-------5--|
A: |-----------------|----------------------------------------|--2--------------------------|
E: |-----------------|----------------------------------------|----------------3------------|

At intro, the Guitar II plays something like this:

         N.H.
e: |-----------|
B: |-----------|
G: |-----------|
D: |--7--[7]---|
A: |-----------|
E: |-----------|

RIFF 2 (distortion)

      D5  A5  F5    C5  G5  D5  A5         A5            (x2)
e: |---------------------------------------------------------|
B: |---------------------------------------------------------|
G: |--7-7-----10-10-5-5-----7-7------------------------------|
D: |--7-7-7-7-10-10-5-5-5-5-7-7-7-7--x-x-x-7-7-x-x-x---------|
A: |--5-5-7-7-8--8--3-3-5-5-5-5-7-7--x-x-x-7-7-x-x-x---------|
E: |------5-5-----------3-3-----5-5--x-x-x-5-5-x-x-x---------|

RIFF 3 (distortion)

      D5      C5 B5 Bb5    F5       C       D5
e: |-------------------------------------------------|
B: |-------------------------------------------------|
G: |--7-7-7-7--5-4-3-3-3-3-10-10-10-9-9-----7--------|
D: |--7-7-7-7--5-4-3-3-3-3-10-10-10-10-10---7--------|
A: |--5-5-5-5--3-2-1-1-1-1-8--8--8--10-10---5--------|
E: |--------------------------------8--8-------------|

SOLO 1

e: |------------------------------------------------------------------------------|
B: |----------------------6--8/10-10(b)-10(b)-10~~--12-10\8--6\5~~~~ 5tr6---------|
G: |5h7--5h7-5-5/7~~--5h7------------------------------------------------- 5/7~~--|
D: |------------------------------------------------------------------------------|
A: |------------------------------------------------------------------------------|
E: |------------------------------------------------------------------------------|

Guitar II plays the riff 1

RIFF 1 (x2)
RIFF 2 (x2)
RIFF 3

SOLO 2 (It is divided in 5 parts to be easier to understand)

Guitar II plays 4 times: D5  Bb5  G5  Bb5  A5

PART 1 (x2)

e: |-------------------------------------------------------------------------------------------|
B: |----------------------------------------13/15(b)--17-15\13-13/15(b)--15-13-----------------|
G: |--12h14(b)-12h14(b)-12h14(b)-12h14-12--------------------------------------15-15~~~~--14~--|
d: |-------------------------------------15----------------------------------------------------|
A: |-------------------------------------------------------------------------------------------|
E: |-------------------------------------------------------------------------------------------|

e: |------------------|
B: |-15-13------------|
G: |------15-14-12----|
D: |---------------15-|
A: |------------------|
E: |------------------|

PART 2
             (x7)
e: |------------|-----------------------------|-------13~~-|
b: |------------|-----*-----------------------|--15(b)-----|
g: |--0h12h14p--|-13(br)13-13/15-15(br)15-15~-|------------|
d: |------------|-----------------------------|------------|
a: |------------|-----------------------------|------------|
e: |------------|-----------------------------|------------|

PART 3

e  |-10-13-12-10-8/10~~-10-13-12-10-8/10~~-10-13-12-10-8/10-----------------------------------------|
b: |--------------------------------------------------------10-11(br)11-11(br)11-10(br)10-10(br)10--|
g: |------------------------------------------------------------------------------------------------|
d: |------------------------------------------------------------------------------------------------|
a: |------------------------------------------------------------------------------------------------|
e: |------------------------------------------------------------------------------------------------|

PART 4 (The fastest)

            (x12)        (x12)
e: |--0h15h17p--|--0h17h18p--|
b: |------------|------------|
g: |------------|------------|
d: |------------|------------|
a: |------------|------------|
e: |------------|------------|

PART 5
                                                 PM-----------------------------------------|
e: |-------------------------------------------|--------------------------------------------|
b: |-------------------------------------------|--------------------------------------------|
g: |--14(br)14--14\10--10----------------------|-------------------10-12-12/14(b)--12-10-9--|
d: |---------------------12-10-----------------|-------------10-12--------------------------|
a: |--------------------------13-12-10---------|-------10-12--------------------------------|
e: |----------------------------------12-10-12-|-10-12--------------------------------------|

Both Guitar I and II:

e: |---------------|
B: |---------------|
G: |--7-5-3--------|
D: |--------7-5-3--|
A: |---------------|
E: |---------------|

Riff 1 and 2 are repeated

At the end, the Guitar II plays:

(Clean w/ chorus)
          Dm     (x2)
e: |-----------------|
B: |------6-5h6------|
G: |----7-------7----|
D: |--7--------------|
A: |-----------------|
E: |-----------------|

END

*Note: The "bend and release" are played once. The note after the parenthesis is played apart.

Lyrics:

Intro [Riff 1]

Verse 1
[Riff 1]
I feel so lonely
Since I had to leave you
'Cause all I had to say
Was not true

Verse 2
[Riff 1]
I'm thinking of you
Every day and every night
I'm missing your lovin'
Your face and your eyes

Verse 1 and 2

Chorus
[Riff 2]
Oh, oh, oh, I had to leave you
But I cannot, cannot forget you
I want you
I want you
I want you!

[Riff 2]
I stand by my window
And all seems so low
Slow but sure I understand
The good times we had
The good times we had

[Riff 3]
So empty is my heart
Without you
Without you
Stand apart

Solo 1

Verse 4
[Riff 1]
I remember your brown eyes
You looked so kind
Looked at me
Sparkled in the night

Verse 5
[Riff 1]
I'd change my mind
I will take your way
Together forever
Come on, it's the last essay - yeah

Chorus

Solo 2

Chorus 2
[Riff 2]
Since I had to leave you
I cannot forget you
Slow but sure I understand
The good times we had
The good times we had

[Riff 2]
I stand by my window
And I've been so low
Slow but sure I understand
The good times we had
The good times we had

[Riff 3]
So empty is my heart
Without you
Without you
Stand apart

END
Related for Without You tab