Song name
# A B C D E F G H I J K L M N O P Q R S T U V W X Y Z

Warlock - I Rule The Ruins tab

Feedback at gnomefry13@gmail.com

Intro

------------------------------------------------------------------------------|
------------------------------------------------------------------------------|
----------2-------0-----------2p0-------0-------0h2----------2-------0--------|
----------2-------0-----------2p0-------0-------0h2----------2-------0--------|
--x\--------------------------------------------------------------------------|
--x\---0-----0-0-----0-0-0-0---------0------0------------0------0--0----------|

------------------------------------------------------------------------------|
------------------------------------------------------------------------------|
------------2p0---------------------------------------------------------------|
------------2p0-------2------repeat-------------------------------------------|
----------------------2-------------------------------------------------------|
--0-0-0-0---------0---0-------------------------------------------------------|


Verse
                                             first time fill
--------------------------------------------|---------------------------------|
--------------------------------------------|---------------------------------|
------------------5-------------2-----------|----9p7--4x----------------------|
----2-------------5------5------2------2----|----9p7--------------------------|
----2-------------3------5------0------2----|---------------------------------|
----0--------------------3-------------0----|---------------------------------|
Pedal E

Bridge

--------------------------------|
--------------------------------|
----2------4-----5------7-------|
----2------4-----5------7-------|
----0------2-----3------5-------|
--------------------------------|

Chorus

I rule the Ruins     With passion and Pain
------------------------------------------------------------------------------|
------------------------------------------------------------------------------|
---------------------------2--------------------------------------------------|
--2---5----7---2------5----2--------------------------------------------------|
--2---5----7---2------5----0--------------------------------------------------|
--0---3----5---0------3-------------------------------------------------------|


  E    G    A   E   F   E
------------------------------------------------------------------------------|
------------------------------------------------------------------------------|
------------------------------------------------------------------------------|
------------------------------------------------------------------------------|
------------------------------------------------------------------------------|
------------------------------------------------------------------------------|

Intro 2x
Verse
Bridge
Chorus
Lead
Intro

2x
------------------------------------------------------------------------------|
------------------------------------------------------------------------------|
------------------------------------------------------------------------------|
-------5------7-----------8-------7------5-------7-------8--7--5*-------------|
------------------------------------------------------------------------------|
--0-0-----0-0----0-0-0-0-----0-0-----0-0----0-0-----0-0-----------------------|

Pedal E
Chorus
End
Tap to rate this tab
 
# A B C D E F G H I J K L M N O P Q R S T U V W X Y Z