Guitaretab - guitar tabs
Song name
# A B C D E F G H I J K L M N O P Q R S T U V W X Y Z

Warlock - Burning The Witches tab

Warlock - Burning The Witches

Intro
e|--------------|
b|--------------|
g|--------4-----|
d|--4--7--4--4--|
a|--4--7--2--4--|
E|--2--5-----2--|

Intro/Verse P1
e|---------------------------------|
b|---------------------------------|
g|---------------------------7--9--|
d|-------------7-------------7--9--|
a|-------0-----7-------0-----5--7--|
E|--0h2-----2-5--0h2-----2--------|
Pm    .     .       .     .

Verse P2
e|------------------------|
b|------------------------|
g|--4--7--4--9--6--9--10--|
d|--4--7--4--9--6--9--10--|
a|--2--5--2--7--4--7---8--|
E|------------------------|
[ Tab from: http://www.guitaretab.com/w/warlock/83402.html ]
Chorus
e|--------------------|
b|--------------------|
g|--------4-----7--4--|
d|--4--7--4--4--7--4--|
a|--4--7--2--4--5--2--|
E|--2--5-----2--------|

Solo
e|---------------------------------------------|---------------------|
b|---------------------------------------------|---------------------|
g|---------------------------7--9--7--9--7--9--|---------------------|
d|-------------7-------------7--9--7--9--7--9--|---------------------|
a|-------0-----7-------0-----5--7--5--7--5--7--|--9--7---------------|
E|--0h2-----2-5--0h2-----2--------------------|--------10--9--7--5--|
Pm    .     .       .     .

Outro
e|--------------------|-----|
b|--------------------|-----|
g|--------------------|-----|
d|--7--6--4-----------|--7--|
a|-----------7--5-----|--7--|
E|-----------------5--|--5--|
Related for Burning The Witches tab