Song name
# A B C D E F G H I J K L M N O P Q R S T U V W X Y Z

Warpaint - Set Your Arms Down tab

Here is the tab for the warpaint song "set your arms down"
The original tab is made by tara and can be found here:

http://viewmorepics.myspace.com/index.cfm?
fuseaction=viewImage&friendID=361498543&albumID=1064192&imageID=14583720

sequence 1:

e-5--------------------------5------------------------------------|
B-------5-6-5------------------5-------5---6-5---5----------------|
G---5-7-------7-5-------5-7------7-5-7---7-----7---7-5-------5-7--|
D-----------------7-5-7--------------------------------7-5-7------|
A-----------------------------------------------------------------|
E-----------------------------------------------------------------|
                                                            Repeat
End of sequence 1:

e-5---------------------------------------------------------------|
B---5-------5---6-5---5-------------------------------------------|
G-----7-5-7---7-----7---7-5-------5-7-7-5-------5-6-7-------------|
D---------------------------7-5-7---------7-7-5-------------------|
A-----------------------------------------------------------------|
E-----------------------------------------------------------------|

e-----------------------------------------------------------------|
B-----------------------------------------------------------------|
G-7-7-7-7-7-7-7-7-------------------------------------------------|
D-----------------------------------------------------------------|
A-----------------------------------------------------------------|
E-----------------------------------------------------------------|
                                 Repeat for as long as you hear it

e-----------------------------------------------------------------|
B----5--5--5--5--5--5----5--5--5-5--------------------------------|
G--7--7--7--7--7--7--4-7--7--7------------------------------------|
D-----------------------------------------------------------------|
A-----------------------------------------------------------------|
E-----------------------------------------------------------------|
                                 Repeat for as long as you hear it

sequence 2:

e-----------------------------------------------------------------|
B-----5-----------5-----------------------------------------------|
G---7---5-------7---5-5-------------------------------------------|
D-7-------5-7-7---------5-7---------------------------------------|
A-----------------------------------------------------------------|
E-----------------------------------------------------------------|
                                 Repeat for as long as you hear it

Have fun :D
Tap to rate this tab
 
# A B C D E F G H I J K L M N O P Q R S T U V W X Y Z