Song name
# A B C D E F G H I J K L M N O P Q R S T U V W X Y Z

Warpaint - Bees tab

-------------------------------------------------------------------------------
			     BEES - Warpaint
-------------------------------------------------------------------------------
Tabbed by:Maria Valerievna
Email:www.myspace.com/gloriashouse

Tuning:standart

Your full moon taunts me..
e|-------------------------------------------------------|
B|-------------------------------------------------------|
G|-------------------------------------------------------|
D|-------------------------------------------------------|
A|-0---121212-0--1212121212-0---0---121212-0--1212121212-|
E|-------------------------------------------------------|
You put me, you put me on yourself..
e|-------------------------------------------------------|
B|-------------------------------------------------------|
G|-------------------------------------------------------|
D|-----101010----1010101010--------101010----1010101010--|
A|-0---121212-0--1212121212-0--0---121212-0--1212121212--|
E|-------------------------------------------------------|

and all the time it took you to get your self straight..
e|-15-----12---------------------------------------------------|
B|-----0------0------------------------------------------------|
G|---16-----14---16-------------------------9-----9-9--10-10-9-|
D|-----------------17-17------------------7---9--7-7--7--7----7|
A|-----------------------14-15/17-17--7-8----------------------|
E|-------------------------------------------------------------|

e|-15-----12----------------------------------------------------|
B|-----0------0-------------------------------------------------|
G|---16-----14---16--------------------------9-----9-9--10-10-9-|
D|------------------17-17------------------7---9--7-7--7--7----7|
A|------------------------17-17/19-19--7-8----------------------|
E|--------------------------------------------------------------|

and all the time it took you to get your self straight
all that time it took you to get your self straight
all that time it took you to get yourself straight
was too late
so work harder for the things you made in me
e|--------------------------------------------------------------|
B|--------------------------------------------------------------|
G|--------------------------------------------9-9---------------|
D|-1010101010101010101010-9-9-9-9-9-9-9-912121212-9-9-9-9-9-9-9-|
A|-12121212121212121212121212121212121212-0-0----12121212121212-|
E|--------------------------------------------------------------|

And your full moon taunts me
And your thoughts they got me
e|-----------------------------------------------------------------------------------------|
B|-----------------------------------------------------------------------------------------|
G|--------------------------------------------9-9----0-0-0-0-0-0-0-0-0-0-0-0-0-0-0-0-0-0-0-|
D|-1010101010101010101010-9-9-9-9-9-9-9-912121212---15151515151515151515141414141415151515-|
A|-12121212121212121212121212121212121212-0-0-------16161616161616161616151515151515151515-|
E|-----------------------------------------------------------------------------------------|

got me in
got me in
e|-15-----12---------------------------------------------------|
B|-----0------0------------------------------------------------|
G|---16-----14---16-------------------------9-----9-9--10-10-9-|
D|-----------------17-17------------------7---9--7-7--7--7----7|
A|-----------------------14-15/17-17--7-8----------------------|
E|-------------------------------------------------------------|

e|-15-----12----------------------------------------------------|
B|-----0------0-------------------------------------------------|
G|---16-----14---16--------------------------9-----9-9--10-10-9-|
D|------------------17-17------------------7---9--7-7--7--7----7|
A|------------------------17-17/19-19--7-8----------------------|
E|--------------------------------------------------------------|

Did i reset what I started?
Did I resist what I wanted?
Do I think you've got my number?

e|-1515------------------------------------------------------|
B|---------1515----------------------------------------------|
G|-----1616--------1414--------------------------------------|
D|-------------1717---------14-------------------------------|
A|---------------------1717---12-14--------------------------|
E|-----------------------------------------------------------|

I'm not the one to continue on.
e|-15--0-----------------------------------------------------|
B|-------15--0-------------------15--0-----0-----------------|
G|---16--------14--0-------------------14--------------------|
D|---------17--------14------------17--------14--------------|
A|---------------17----12-14-------------17----12-14---------|
E|--------------------------1212--------------------12121212b|

e|-15--0-----------------------------------------------------------19---17---12-15---1414-12-|
B|-------15--0-------------------15--0-----0-------------------------17---17------12---------|
G|---16--------14--0-------------------14----------------------------------------------------|
D|---------17--------14------------17--------1414141414141414141414--------------------------|
A|---------------17----12-14-------------17--------------------------------------------------|
E|--------------------------1212-------------------------------------------------------------|

ahhhhhhhhhhhhhhhh
e|------12-----12-----12-----12-----12--------------------------------------|
B|------------------------------------------15-----15-----15-----15------15-|
G|-12h14--12h14--12h14--12h14--12h14---12h14--12h14--12h14--12h14---12h15---|
D|--------------------------------------------------------------------------|
A|--------------------------------------------------------------------------|
E|--------------------------------------------------------------------------|
all that time it took you to get yourself straight
was too late
so work harder for the things you made in me

************************************
| h   hammer-on
Tap to rate this tab
 
# A B C D E F G H I J K L M N O P Q R S T U V W X Y Z