Song name
# A B C D E F G H I J K L M N O P Q R S T U V W X Y Z

Warpaint - Shawdows tab

-------------------------------------------------------------------------------
			     SHADOWS - Warpaint
-------------------------------------------------------------------------------


Chords:

e|--2--2--2--3--------|
B|--3--3--3--3--------|
G|--4--2--4--4--------|
D|--4--4--2--5--------|
A|--2--4-----5--------|
E|--------------------|
Tap to rate this tab
# A B C D E F G H I J K L M N O P Q R S T U V W X Y Z