Song name
# A B C D E F G H I J K L M N O P Q R S T U V W X Y Z

Warpaint - Shadows tab

-------------------------------------------------------------------------------
                             SONG NAME - Band Name
-------------------------------------------------------------------------------
Tabbed by:Ecolibyproxy
Email:ijustmakeeyes@live.co.uk

Tuning: EADGBe
v strum up
^strum down

The songs in a weird timing like 5/4 which is why theyres
five chords per bar. But its a simple song so easy to play with out
thinking about it.

also between each chord you can do a muted strum.

e|--2--2--2--2----2--2--2--2----2--2--2--2----0--0--2--0----3--3--3--3-----|
B|--3--3--3--3----3--3--3--3----2--2--2--2----2--2--2--2----3--3--3--3-----|
G|--4--4--4--4----4--4--4--4----2--2--2--2----2--2--2--2----4--4--4--4-----|
D|--4--4--4--4----4--4--4--4----4--4--4--4----2--2--2--2----5--5--5--5-----|
A|--2--2--2--2----2--2--2--2----4--4--4--4----0--0--0--0----5--5--5--5-----|
E|--2--2--2--2----2--2--2--2----2--2--2--2----0--0--0--0----3--3--3--3-----|
    ^  ^  v  ^    ^  ^  v  ^    ^  ^  v  ^    ^  ^  v  ^    ^  ^  v  ^


The riff is the same throughou the song apart from before the drums
come in the second time and its plucked but you just keep your hands
in  the same shape as the chord


e|-------------------------------------------------------------------------|
B|-------------------------------------------------------------------------|
G|-----4-----4-------4-----4---------------------2-----2-------------------|
D|--------4-------------4----------4-----4----------2----------5-----5-----|
A|--2-------------2-------------------4-------0-------------------5--------|
E|------------------------------2---------------------------3--------------|


and thats it feel free to message me if i missed somthing or you have somthing to
add :)



************************************

| /   slide up
| \   slide down
| h   hammer-on
| p   pull-off
| ~   vibrato
| +   harmonic
| x   Mute note
| b   Bend
| pb  Pre-bend
| br  Bend release
| pbr Pre-bend release
| brb Bend release bend

************************************
Tap to rate this tab
# A B C D E F G H I J K L M N O P Q R S T U V W X Y Z