Song name
# A B C D E F G H I J K L M N O P Q R S T U V W X Y Z

Warpaint - Jubliee tab

-------------------------------------------------------------------------------
                               Jubilee - Warpaint
-------------------------------------------------------------------------------
There are a couple of different versions on the net but this is what I made out of 
Theresa's intro.

Tuning: Standard

Theresa:
e|---------------------------------------------------------------|
B|---------------------------------------------------------------|
G|---------------------------------------------------------------|
D|---9-----9--------11-12---12----14-------14----12----12-11-----|
A|---------------------------------------------------------------|
E|-7---7-7----12-12-------12----15---15-15----10----10-----------|

Before the rest of the band starts playing Theresa plays this:
e|-----------------------------------------------------------------|
B|-----------------------------------------------------------------|
G|-----------------------------------------------------------------|
D|---9-----9--------11-12---12----14-------14----16----16-16-------|
A|-----------------------------------------------------------------|
E|-7---7-7----12-12-------12----15---15-15----17----17-------------|
Tap to rate this tab
# A B C D E F G H I J K L M N O P Q R S T U V W X Y Z