Song name
# A B C D E F G H I J K L M N O P Q R S T U V W X Y Z

Warpaint - Set Your Arms Down tab

-------------------------------------------------------------------------------
                          SET YOUR ARMS DOWN - Warpaint
-------------------------------------------------------------------------------
Tabbed by:
E-mail:

Tuning: Standard

e|--5------------------------------------------------------------------------|
B|-----5-----------5-----6--5-----5------------------------------------------|
G|--------7--5--7-----7--------7-----7--5-----------5-----7------------------|
D|-----------------------------------------7--5--7-----5---------------------|
A|---------------------------------------------------------------------------|
E|---------------------------------------------------------------------------|
Tap to rate this tab
# A B C D E F G H I J K L M N O P Q R S T U V W X Y Z