Song name
# A B C D E F G H I J K L M N O P Q R S T U V W X Y Z

Warpaint - No Way Out tab

Part 1

Emily:
e |--------------------------------------------------|
B |--------------------------------------------------|
G |--------------------------------------------------|
D |---------------------2-0--------------------------|
A |-------2-0-------------------------0-0-2-4-2--0---|
E |-0-2---------(4)-0----------2---------------------|

Jenny:
e |--------------------------------------------------|
B |--------------------------------------------------|
G |--------------------------------------------------|
D |--------------------------------------------------|
A |--------------------------------------------------|
E |-2-----5-(5)--0---------------------------0-0-0-0-|

Part 2

Emily:
e |--------------------------------------------------|
B |--------------------------------------------------|
G |--------------------------------------------------|
D |--------------------------------------------------|
A |-----------------0-2-4h5-4-2-4--------------------|
E |-0-2---2-4---4-5----------------------------------|

e |--------------------------------------------------|
B |--------------------------------------------------|
G |--------------------------------------------------|
D |--------------------------------------------------|
A |--------------------------------------------------|
E |-0-2---2-4---4-5---4-4h5-4-0----------------------|

e |-----------------------------------------------------------------------|
B |-----------------------------------------------------------------------|
G |-----------------------------------------------------------------------|
D |-----------------------------------------------------------------------|
A |-----------------0-2-4h5-4-2-4-----------9-9---5-5---4-4---2-2---------|
E |-0-2---2-4---4-5-------------------------------------------------2-4-2-|

I'm soooory! :) It's so awful...
Tap to rate this tab
 
# A B C D E F G H I J K L M N O P Q R S T U V W X Y Z