Song name
# A B C D E F G H I J K L M N O P Q R S T U V W X Y Z

Warpaint - Keep It Healthy tab

-------------------------------------------------------------------------------
                             KEEP IT HEALTHY (Intro) - Warpaint
-------------------------------------------------------------------------------
Tabbed by: Alex

Tuning:

E|----------------------------------------------------------------------------|
B|--------3--------------------------------------0--------0--------0--------3-|
G|-----4-----------4--------------------0-----0--------0--------0--------4----|
D|--4-----------4--------0-----0-----0-----2--------0--------4--------5-------|
A|-----------5--------4-----0-----2-------------------------------------------|
E|----------------------------------------------------------------------------|

E|-----------------------------------------------------|
B|--------3--------------------0--------0--------------|
G|-----0--------0-----0-----0--------0--------0--------|
D|--4--------0-----2-----4--------2--------0--------0--|
A|-----------------------------------------------4-----|
E|-----------------------------------------------------|

Repeat
Tap to rate this tab
# A B C D E F G H I J K L M N O P Q R S T U V W X Y Z